Rush - A Passage To Bangkok Chords & Tabs

 

A Passage To Bangkok Chords & Tabs

Rush Chords & Tabs

Version: 5 Type: Tab 0 ratings
1 star 2 stars 3 stars 4 stars 5 stars
comments

A Passage To Bangkok Tab

~  Vibrato
^  Bend
h  Hammer on
p  Pull Off
/  Slide Up
\  Slide Down

Plese rete this tab for whatever its should be but at least rate it.
|-----------------------------------|
|-----------------------------------|
|-----------------------------------|
|-----------------------------------|
|-----7-75-57-5-------5-53-35-3-----|
|--00----------7---00----------5----|
[ Tab from: http://www.guitartabs.cc/tabs/r/rush/a_passage_to_bangkok_tab_ver_5.html ]
|-----------------------------------|
|--9-7-9-7--------------------------|
|----------8-9-7-9-7----------------|
|--------------------8--------------|
|-----------------------------------|
|-----------------------------------|

|----------------------|
|----------------------|
|----------------------|
|----------------------|
|--9-7-9-7----99999777-|
|----------8--77777555-|
Comments