Rush - A Passage To Bangkok Chords & Tabs

 

A Passage To Bangkok Chords & Tabs

Rush Chords & Tabs

Version: 4 Type: Tab 0 ratings
1 star 2 stars 3 stars 4 stars 5 stars
comments

A Passage To Bangkok Tab

Rush
"Passage To Bangkok"
Josh Easton
master_o_puppets86@hotmail.com
[ Tab from: http://www.guitartabs.cc/tabs/r/rush/a_passage_to_bangkok_tab_ver_4.html ]
(intro)
E--------------------------------------
B--------------------------------------
G--------------------------------------
D--------------------------------------
A------7---5---7\3-3-------------------
E--0-0---0---0-------0-0-8-0-5-0-5\2-2-

(Indian Sounding Thingy)
E--10--10--10--10--9--9----------9-----
B--8---8---8---8---7--7--10--10--7-----
G------------------------7---7---------
D--------------------------------------
A--------------------------------------
E--------------------------------------
Comments