Rush - A Passage To Bangkok Chords & Tabs

 

A Passage To Bangkok Chords & Tabs

Rush Chords & Tabs

Version: 3 Type: Tab 0 ratings
1 star 2 stars 3 stars 4 stars 5 stars
comments

A Passage To Bangkok Tab

this is good, plus its the way its actually played
[ Tab from: http://www.guitartabs.cc/tabs/r/rush/a_passage_to_bangkok_tab_ver_3.html ]
e----------------------------------------
B----------------------------------------
G----------------------------------------
D----------------------------------------
A------77--55--7----------33------32-----
E--00-------------7---00------22------3--

play 4 x's

e----------------------------------------
B----------------------------------------
G--12--11----12p-------9--8--9p----------
D-----------------13-------------9-------
A----------------------------------------
E----------------------------------------


play 2 x's
Comments