Rush - A Passage To Bangkok Chords & Tabs

 

A Passage To Bangkok Chords & Tabs

Rush Chords & Tabs

Version: 1 Type: Tab 2 ratings
1 star 2 stars 3 stars 4 stars 5 stars
comments

A Passage To Bangkok Tab

hey this is a passage to bangkok from rush 2112 hope you enjoy it




into part
------------------------------------|-10-10-10-10-9-9-------9--------
------------------------------------|--8--8--8--8-7-7-10-10-7--------
------------------------------------|------------------7--7----------
------------------------------------|--------------------------------
----7---5---7->-2-2-----------------|--------------------------------
0-0---0---0---------0-0-8-0-7-8->-3-|--------------------------------

 japan part      
----------------------|----------------------------------------------
-8-7--8-7-------------|----------------------------------------------
----------8-9-8-9-8---|----------------------------------------------
--------------------9-|----------------------------------------------
----------------------|----------------------------------------------
----------------------|----------------------------------------------

-----------------3-|-------------------------------------------------
9-7-9->-4--5-5-5-3-|-------------------------------------------------
9-7-9->-4--5-5-5-4-|-------------------------------------------------
9-7-9->-4--5-5-5-5-|-------------------------------------------------
7-5-7->-2--3-3-3-5-|-------------------------------------------------
-----------------3-|-------------------------------------------------

Chorus
-2-3-7-5-2-3-2-3-0-2--2-3-7-8-7-2-3-0-|------------------------------
-3-5-8-7-3-3-3-0-2-3--3-5-8-8-8-3-0-2-|------------------------------
-2-5-7-7-2-3-2-0-2-2--2-5-7-7-7-2-0-2-|------------------------------
-0-0-0-0-0-0-0-0-2-0--0-0-0-0-0-0-0-2-|------------------------------
---------------2-0----------------2-0-|------------------------------
---------------3------------------3---|------------------------------

Solo
---------------------------------------------------------------------
10---------------------------------_-_-_-_-_-_--12-!-----------------
-9->-(11)->-9-7-7->-(9)->-7---7->-4-7-4-7-4-7-4----------------------
----------------------------9----------------------------------------
---------------------------------------------------------------------
---------------------------------------------------------------------

---10-12-10----10----------------------_-----------------------------
12----------12----12->-(15)->-12-!---14-12_----12--------------------
-------------------------------------------13-----14->-(16)->-14-----
---------------------------------------------------------------------
---------------------------------------------------------------------
---------------------------------------------------------------------


---------------------------------------------------------------------
12-10----------------------------------------------------------------
------11-9-11-9->-(11)->-9-!-->-11-9->-(11)-9-9->-(11)->-9--9-8-7----
---------------------------------------------------------------------
---------------------------------------------------------------------
---------------------------------------------------------------------

[ Tab from: http://www.guitartabs.cc/tabs/r/rush/a_passage_to_bangkok_tab.html ]
---------------------------------------------------------------------
---------------------------------------------------------------------
---------------------------------------------------------------------
9-8-7----------------------------------------------------------------
------9-8-7--------------------_-----------_---------------_---------
------------11-10-9-7--7-7-7--7-9--9-9-9--9-10--10-10-10-10-12-12-12-


---------------------------------------------------------------------
--------------------------_------------------------------------------
--------7---7-9->-(11)->-9-7_----------------------------------------
----7-9---9------------------7---------------------------------------
9-9------------------------------------------------------------------
---------------------------------------------------------------------

                                                               _  _
----------------------------------------7-9-10-10->-(12)-10-7-7-10-7_---7
-----------7-10-10->-(12)->-10-7---7-10------------------------------10--
9-9->-(11)-----------------------9---------------------------------------
-------------------------------------------------------------------------
-------------------------------------------------------------------------
-------------------------------------------------------------------------


------10-----------------------------_------------_-----------_------
10-12----12->-(15)->-12--12-12-12--10-12-12-12--12-10_---10-10-7-----
------------------------------------------------------11-------------
---------------------------------------------------------------------
---------------------------------------------------------------------
---------------------------------------------------------------------


---------------------------------------------------------------------
-_---------------10----------10----------10----------10-10-----------
9-7_--7-9->-(11)----9->-(11)----9->-(11)----9->-(11)-----9->-(11)----
----9----------------------------------------------------------------
---------------------------------------------------------------------
---------------------------------------------------------------------


-------------------------------------17----------_---------------------
---------10-10-------------17->-(19)----(19)->-17-15_---15-----------15
9->-(11)-----9->-(11)->-16---------------------------16----14->-(16)---
-----------------------------------------------------------------------
-----------------------------------------------------------------------
-----------------------------------------------------------------------


------------------------------------------------------------------_--
----------15-----------15------------12-12-10----10-12->-(14)->-12-10
14->-(16)----14->-(16)----14->-(16)-----------11---------------------
---------------------------------------------------------------------
---------------------------------------------------------------------
---------------------------------------------------------------------


--2-|----------------------------------------------------------------
--3-|----------------------------------------------------------------
9-2-|----------------------------------------------------------------
--0-|---------0-0-1-1-2----------------------------------------------
----|-0-0-4-4--------------------------------------------------------
----|----------------------------------------------------------------

Comments