Rush - 2112 Overture Chords & Tabs

 

2112 Overture Chords & Tabs

Rush Chords & Tabs

Version: 2 Type: Tab 0 ratings
1 star 2 stars 3 stars 4 stars 5 stars
comments

2112 Overture Tab

   
OVERTURE REFERANCE TAB(E A D G B E) - TUNED 

  Gtr I  
|----------|-------------|-------------|-------------|
|----------|-------------|-------------|-------------|
|----------|-------------|-------------|-------------|
|----------|---2---------|-5---7-------|-5-----------|
|----------|-2-0---------|-3-5-5-------|-3-----------|
|----------|-0-----------|---3---------|-------------|
  
|--------------|-------------|-------------|-------------|
|--------------|-------------|-------------|-------------|
|--------------|-------------|-------------|-------------|
|-2-2-2--------|---2---------|-5-----------|---2---------|
|-0-0-0--------|-2-0---------|-3-5---------|-2-0---------|
|--------------|-0-----------|---3---------|-0-----------|
  
|-----------------|-------------|-------------|---------------|
|-----------------|-------------|-------------|---------------|
|-----------------|-------------|-------------|---------------|
|-5---7---5---7---|---2---------|-5-----------|---2----5---7--|
|-3-5-5---3-5-5---|-2-0---------|-3-5---------|-2-0----3-5-5--|
|---3-------3-----|-0-----------|---3---------|-0--------3----|
  
|------------|-------------------|
|------------|-------------------|
|------------|-------------------|
|----2-------|-5-----------------|
|-2--0-------|-3-5---------------|
|-0----------|---3---------------|
  
|---------------------------|-15--14--12--15---|
|---------------------------|------------------|
|---------------------------|------------------|
|---2-5---7---5---7---2-2-2-|------------------|
|-2-0-3-5-5---3-5-5---0-0-0-|------------------|
|-0-----3-------3-----------|------------------|
   
|-----5---------|------------------|---------------|
|-15-----3------|-13------13-15----|--3------------|
|---------------|-----12--------14-|-----2---------|
|---------------|------------------|---------------|
|---------------|------------------|---------------|
|---------------|------------------|---------------|

  (............................PLAY 4 TIMES.....................
|-------------------------------|--------------------------------|
|-------------------------------|--------------------------------|
|-------------------------------|--------------------------------|
|-0-4--4-4-4--4-4-4--4-4-4-4-4--|--------------------------------|
|-0-2--2-2-2--2-2-2--2-2-2-2-0--|-5---5-5-5---5-5-5---5-5-5-0----|
|-------------------------------|-3-==3-3-3---3-3-3---3-3--------|

......................................) 
|-------------------------------------|-----------------------|
|-------------------------------------|-----------------------|
|-------------------------------------|-----------------------|
|---------9--7-7-7-7--4--4-4-4-4-4-4-7|-----------------------|
|-7-7-7-7-7--5-5-5-0--2--2-2-2-2-2-2-5|-----------------------|
|-5-5-5-5-----------------------------|----0-2-3-5-3-0--------|

(..........PLAY 4 TIMES................................)
|------------------------|--------------------------------------------|
|-2-2---4-4---7-7--6-6---|-2-2---4-4---7-7-----------------3--7-7--4-4|
|-2-2---4-4---7-7--6-6---|-2-2---4-4---7-7-----------------4--8-8--4-4|
|-2-2---4-4---7-7--6-6---|-2-2---4-4---7-7-----------------4--8-8--4-4|
|------------------------|---------------------------------2--6-6--2-2|
|------------------------|-----------------0-2-3-5-3-0----------------|
[ Tab from: http://www.guitartabs.cc/tabs/r/rush/2112_overture_tab_ver_2.html ]
(PLAY 2 TIMES......)
|--------------------|
|--------------------|
|--------------------|
|-4---------7-6------|
|-2--5--7---5-4-7-9--|
|----3--5-------5-7--|

|--------------------------------------------------------------|
|--------------------------------------------------------------|
|------------4-------------4------------4------------7---9---4-|
|------------4-------------4------------4------------7-7-9---4-|
|------------2-------------2------------2------------5-7-7---2-|
|0-2-3-5-3-0---0-2-3-5-3-0--0-2-3-5-3-0--0-2-3-5-3-0---5-------|

|-------------------------------------------------|
|-------------------------------------------------|
|--------------4-----------4---------------7---9--|
|--------------4-----------4---------------7-7-9--|
|--------------2-----------2---------------5-7-7--|
|--0-2-3-5-3-0--0-2-3-5-3-0--0-2-3-5-3-0-----5----|

|---------------------------------|
|---------------------------------|
|---------------------------------|
|---------------------------------|
|-7--7-7-7-7-7-7-7-7-7-7-7-7-7-7-3|
|-5--5-5-5-5-5-5-5-3-3-3-3-3-3-3-5|
                          
|-------------------------|
|-----1-1-1-1-1-1---------|
|-----2-2-2-2-2-2---------|
|-----3-3-3-3-3-3----5----|
|3----3-3-3-3-3-3--5-3-5--|
|5----1-1-1-1-1-1--3---3--|

  B                                               B     B
|-3---------------------------------------------578--865--|
|-4------------------------------------------568--------8-|
|----4----0-2-0-2-0-2-0-2-0-2-0-----------567-------------|
|-----5-------------------------3------567----------------|
|-----------------------------------567-------------------|
|---------------------------------------------------------|

B.....                          B
|----------------------------------------------------------------|
|10-----8-10-8----------------------------------------------6----|
|-------------9--7-9-7-7---3-2-0--7-5---57-75---------------7----|
|---------------------9----------------7--7--7--575-75-3----7----|
|--------------------------------------------------7--------5----|
|----------------------------------------------------------------|

(.............PLAY 4 TIMES.....)
|-----------------------------------------------------------------|
|----3-3-3-3-3-6---2-3-3-3-3-3------------------------------------|
|-2--4-4-4-4-4-7---2-4-4-4-4-4-4-----9-9-9-9---7-7-7-7---5-5-5-5--|
|-2--4-4-4-4-4-7---2-4-4-4-4-4-5-----9-9-9-9---7-7-7-7---5-5-5-5--|
|-0--2-2-2-2-2-5---0-2-2-2-2-2-5-----7-7-7-7---5-5-5-5---3-3-3-3--|
|------------------------------3----------------------------------|

|-----------------------------------------------------------------|
|----3-3-3-3-3-6---2-3-3-3-3-3------------------------------------|
|-2--4-4-4-4-4-7---2-4-4-4-4-4-4------9-9-9-9---7-7-7-7---5-5-5-5-|
|-2--4-4-4-4-4-7---2-4-4-4-4-4-5------9-9-9-9---7-7-7-7---5-5-5-5-|
|-0--2-2-2-2-2-5---0-2-2-2-2-2-5------7-7-7-7---5-5-5-5---3-3-3-3-|
|------------------------------3----------------------------------|

(.....PLAY 2 TIMES.............)(PLAY 4 TIMES..)
|-----------------------------------------------------------0-------3-------|
|---3-3-3-3-3-6---2-3-3-3-3-3-------------------------------0--------1-3----|
|2--4-4-4-4-4-7---2-4-4-4-4-4-4--023-024-023----------------1-----------5---|
|2--4-4-4-4-4-7---2-4-4-4-4-4-5-------------44--5---7-5---7-2------2-----532|
|0--2-2-2-2-2-5---0-2-2-2-2-2-5-----------------3-5-5-3-5-5-2-0-2-3---------|
|-----------------------------3-------------------3-----3---0---------------|
Comments