Running Wild - Marching To Die Chords & Tabs

 

Marching To Die Chords & Tabs

Running Wild Chords & Tabs

Version: 1 Type: Tab 0 ratings
1 star 2 stars 3 stars 4 stars 5 stars
comments

Marching To Die Tab

                                                          marching to die

                                                                 [ tabs ]

 Marching To Die

 form The First Years of Piracy



 Transcription by Marc Arnold, Germany

 contact: marnold3@ix.urz.uni-heidelberg.de


 For right rhythm, please listen the song.


 Riff 1:

 ---------------------------------------------
 ---------------------------------------------
 -----------------6-4-------------------------
 --6-6-6-4-2-6-6--4-2---6-6-6-4-2-6-----------
 --4-4-4-2-0-4-4--------4-4-4-2-0-4--4--------
 --------------------------------------7-5-4~-

 Riff 2:

 ---------------------------
 ---------------------------
 ---------------------------
 --6---4-6-9-6-2------------
 --4---2-4-7-4-0---4-2------
 ----------------------5-4~-

 Riff 3:

 --------------------------------------------
 --------------------------------------------
 --------------------------------------------
 --6-6-6-6---9-9-9-9---6-6-6-----------------
 --4-4-4-4---7-7-7-7---4-4-4---0---0-2-0-----
 --------------------------------4-------4-2-

 Riff 4:

 --------------------------------------------
 --------------------------------------------
 --------------------------------------------
 ------------2-2-2-2-------------------------
 --4-4-4-4---0-0-0-0---4-4-4---0---0-2-0-----
 --2-2-2-2-------------2-2-2-----4-------4-2-

 Riff 5:

 ------------------------------------------
 ------------------------------------------
 ------------------------------------------
 --6---------------------------------4-----
 --4--4-often--2-0----2------------6-2-----
 ------------------4--0--0-0-0-0-0-4-------

 Riff 6:
[ Tab from: http://www.guitartabs.cc/tabs/r/running_wild/marching_to_die_tab.html ]
 -------------------------
 -------------------------
 -------------------------
 --6-------9-------6------
 --4---2---7---9---4---6--
 ------0-------7-------4--

 Outro Part I:

 --------------------------------------------------------
 --------------------------------------------------------
 --------------------------------------------------4-----
 ----------------------------------2---------------2-----
 --4-4-4-4-4-4-2-0-------------2-4---4-2-2-2-2-0------4--
 ------------------4-4-4-4-4-4-------------------4----2--

 Outro Part II:

 ----------------4---------------------------------
 ------4-5---7-5-----7-5-7---5-4-5---4---4---------
 -*--6---------------------------------6-----6-4-6-
 -*------------------------------------------------
 --------------------------------------------------
 --------------------------------------------------

 ------4-------7---5-4-----4-----------------------
 --4-5-----7-5---------7-----7-5---7-5-4---5-4-----
 ----------------------------------------------6-*-
 ------------------------------------------------*-
 --------------------------------------------------
 --------------------------------------------------

 --4--------------------------
 ----7-5-7-5-4----------------
 --------------6--------------
 -----------------------------
 -----------------------------
 -----------------------------
                     ????????


 Playlist:

 2 x Riff 1
 4 x Riff 2 (0:10)
 4 x Riff 3 (0:32)
 4 x Riff 4 (0:52)
 2 x Riff 3 (1:12)
 4 x Riff 5 (1:22)
 2 x Riff 3 (1:42)
 4 x Riff 4 (1:52)
 2 x Riff 3 (2:12)
 4 x Riff 5 (2:23)
 4 x Riff 3 (2:44)
 2 x Riff 4 (3:05)
 2 x Riff 3 (3:15)
 4 x Riff 5 (3:25)
 4 x Outro Part I (3:47)
 1 x Outro Part II (with Riff 6) (4:07)
Comments