Running Wild - Land Of Ice Chords & Tabs

 

Land Of Ice Chords & Tabs

Running Wild Chords & Tabs

Version: 1 Type: Tab 0 ratings
1 star 2 stars 3 stars 4 stars 5 stars
comments

Land Of Ice Tab

                                                              land of ice

                                                                 [ tabs ]

 Transcription by erikgotborn@hotmail.com (erik gotborn)

 Land of Ice

 Taken from the album "Under Jolly Roger".

 Riff 1
 E ---------------------------------------
 B ---------------------------------------
 G ---------------------------------------
 D ---------------------------------------
 A --1---3~~~1---2~~~1---------------------
 E --0-------0-------0---5~~~3--2-3-5--3-2-

 Riff 2
 E ----------------------------------------------
 B ----------------------------------------------
 G ----------------------------------------------
 D --------5--4------------------5--4------------
 A --------3--2-------7--5-------3--2------------
 E --0-0-0------0-0-0-5--3-0-0-0------3-2-3-5--3-
     x x x      x x x      x x x      x x x    x

 E ----------------------------------------------
 B ----------------------------------------------
 G ----------------------------------------------
 D --------5--4------------------5--4------------
 A --------3--2-------7--5-------3--2-------1----
 E --0-0-0------0-0-0-5--3-0-0-0------3-2-3-0----
     x x x      x x x      x x x      x x x

 Riff 3
     <--4x->                  <-4x-->
 E ---------------------------------------------------
 B ---------------------------------------------------
 G ---------------------------------------------------
 D -----------4-------1----------------9---7---12---7-
 A --2--0-----2---1---0---5---2--0-----7---5---10---5-
 E --------3------0-------3---------3-----------------
     x  x  x                  x  x  x

 Riff 4
 First time
 only
 E -------I----------------------------------------
 B -------I----------------------------------------
 G -------I-9-7---5----4--5-----9-7---5----4--5----
 D -------I-----9-------------------9------------7-
 A --7----I------------------7---------------------
 E -------I----------------------------------------
[ Tab from: http://www.guitartabs.cc/tabs/r/running_wild/land_of_ice_tab.html ]
 Riff 5a
 E ------------------------------------------------------------
 B ------------------------------------------------------------
 G ------------------------------------------------------------
 D ---------------7----------------------------7----------10-9-
 A --7-7-7-7-9-10---10-9-7-9-10-7-7-7-7-7-9-10---10-9-7-9------
 E ------------------------------------------------------------

 Riff 5b
 E ------------------------------------------------------------
 B ------------------------------------------------------------
 G ---------------7----------------------------7----------10-9-
 D --7-7-7-7-9-10---10-9-7-9-10-7-7-7-7-7-9-10---10-9-7-9------
 A ------------------------------------------------------------
 E ------------------------------------------------------------

 Riff 6
 E ----
 B ----
 G ----
 D --9-
 A --7-
 E ----

 Land of ice

 Riff 1 x2
 Riff 2 x3
 In 1987 they build a new machine
 To conquer our future, to face things never seen
 Curious of new weapons with more power to destroy
 Ready for the wars with their exciting dangerous toy

 Riff 3 x1
 Flickering lights in the dark indicating ignition
 Energy runs through the circuits to start the transmission

 Land of ice

 Riff 2 x3
 In 1999 they find their destination
 But reality on the screens destroys their fascination
 Ruins and debris neither life nor the spore
 A desert of ice with all the signs of nuclear war

 Riff 3 x1
 Only the wind is breaking the threatening silence
 Sensors show no human beings are living here now

 Riff 4 x4
 Riff 2 x3
 Riff 5a x2
 Riff 5b x2
 Riff 2 x2
 But there are shadows moving around the vessel more and more
 Disfigured creatures gathering, scratching claws on the door
 The choir of the damned built of thousands of rough throats
 "You are the humans of the past, who blasted our hopes"

 Riff 3 x2
 May you come to see desolate world you created
 Now you can take back a message to spread in your time
 Tell'em what happens if they will continue this madness
 Stop building bombs which are able to change the world
 Into the land of ice

 Riff 6 x1
Comments