Running Wild - Fight The Oppression Chords & Tabs

 

Fight The Oppression Chords & Tabs

Running Wild Chords & Tabs

Version: 1 Type: Tab 0 ratings
1 star 2 stars 3 stars 4 stars 5 stars
comments

Fight The Oppression Tab

                                                     fight the oppression

                                                                 [ tabs ]

 Fight the Oppression

 Taken from the album "Branded and Exiled".

 Contact: erikgotborn@hotmail.com (erik gotborn)

 Some riffs are played with muted strings, and I havenít count how many
 times they play on every chord so you have to figure that out for
 yourself.

 Riff 1 is played different in different parts of the song, listen to the
 record to find out these parts.

 Riff 1
     <--3x-->            <--3x-->
 E -----------------------------------------
 B -----------------------------------------
 G -----------------------------------------
 D --1---5--7--1---9--7--1---5--7------5--7-
 A --0---3--5--0---7--5--0---3--5--0---3--5-
 E -----------------------------------------

 Riff 2
          <--3x-->            <--3x-->
 E ----------------------------------------------
 B ----------------------------------------------
 G ----------------------------------------------
 D -------1---5--7--1---9--7--1---5--7------5--7-
 A --3----0---3--5--0---7--5--0---3--5--0---3--5-
 E --1-------------------------------------------
     x

 Riff 3
     <------3x------>
 E -------------------------------
 B -------------------------------
 G -------------------------------
 D --5-----------------5--9-9-9-9-
 A --3---5--7----5--7--3--7-7-7-7-
 E ------3--5----3--5-------------

 Riff 4
 E -----------------------
 B -----------------------
 G -----------------------
 D -----------------------
 A -----------------------
 E --5-5-5-3-5-8-5-5-3-5--
     x x x x x x x x x x

 Riff 5
 E ----------------------------------------
 B ----------------------------------------
 G ----------------------------------------
 D --1-1-1-1--5---1--7-7-7-7---------------
 A --0-0-0-0--3---0--5-5-5-5--7-5---3-0----
 E --------------------------------------3-
       x x x x       x x x x

 E -------------------------------------------
 B -------------------------------------------
 G -------------------------------------------
 D --1-1-1-1--5---1--7-7-7-7--9--7--9--7--7-7-
 A --0-0-0-0--3---0--5-5-5-5--7--5--7--5--5-5-
 E -------------------------------------------
       x x x x       x x x x

 Riff 6a
     <-3x->        <-3x->
 E ----------------------------
 B ----------------------------
 G ----------------------------
 D --0--3-5-0--10--0--3-5-0--5-
 A -------------8------------3-
 E ----------------------------
     x  x x x      x  x x x
[ Tab from: http://www.guitartabs.cc/tabs/r/running_wild/fight_the_oppression_tab.html ]
 Riff 6b
     <-3x->        <-3x->
 E -------------------------------
 B -------------------------------
 G -------------------------------
 D ------------5------------------
 A --0--3-5-0--3--0--3-5-0--8-7-5-
 E -------------------------------
     x  x x x     x  x x x  x x x

 Riff 6c
     <-3x->        <-2x->
 E ------------------------------------
 B ------------------------------------
 G -------4-------------4--------------
 D --4--7---4--10--4--7---0--3-5--0--5-
 A -------------8--------------------3-
 E ------------------------------------
     x  x x x      x  x x x  x x  x

 Riff 7
 E ---------------------
 B ---------------------
 G ---------------------
 D --1---5--1--7---9--5-
 A --0---3--0--5---7--3-
 E ---------------------
     x         x

 Riff 8 (guitar 1)
 E ----------------------
 B ----------------------
 G ----------------------
 D --1---5--1---7------5-
 A --0---3--0---5---5--3-
 E -----------------3----

 Riff 8 (guitar 2)
 E ---------------------------------------------------------
 B --------------------------------5---6-8--6--5--3---------
 G ---------------------7-----------------------------4-5-4-
 D --7---9-10--7--9-10------10-7----------------------------
 A ---------------------------------------------------------
 E ---------------------------------------------------------

 FIGHT THE OPPRESSION

 Riff 1 x2
 Riff 2 x2
 Atomic warheads, weapons of all kind
 Invented to destroy, to find their victims, to grind
 Mendacious rulers, ministers of defence
 Leading you to war, can't you see where it all ends

 Riff 3 x1
 Total destruction, adversary's death
 Contamination, epidemics, and fear
 Bloodshed goes on till the very last breath
 No remedy if blood feeds the gear
 Riff 4 x1
 Riff 5 x2
 Fight the oppression, now
 Fight the oppression, down

 Riff 1 x2
 Riff 2 x2
 Megalomania, ruler's disease
 Deceit and treason, your life is what they seize
 All liberty is dying, to reign is the sense
 Leading you to war, can't you see where it all ends

 Riff 3x2
 Total destruction, adversary's death
 Contamination, epidemics, and fear
 Bloodshed goes on till the very last breath
 No remedy if blood feeds the gear

 Riff 4 x1
 Riff 5 x2
 Fight the oppression, now
 Fight the oppression, down

 Riff 6a x1
 Riff 6b x1
 Riff 6a x1
 Riff 6c x1
 Riff 7 x4
 Riff 8 x4
 Riff 3 x1
 Total destruction, adversary's death
 Contamination, epidemics, and fear
 Bloodshed goes on till the very last breath
 No remedy if blood feeds the gear

 Riff 4 x1
 Riff 5 x2
 Fight the oppression, now
 Fight the oppression, down

 Riff 1 x2
Comments