Running Wild - Fight The Fire Of Hate Chords & Tabs

 

Fight The Fire Of Hate Chords & Tabs

Running Wild Chords & Tabs

Version: 1 Type: Tab 0 ratings
1 star 2 stars 3 stars 4 stars 5 stars
comments

Fight The Fire Of Hate Tab

   
                                                   fight the fire of hate

                                                                 [ tabs ]

 From Black Hand Inn album

 Transcribed by Ivan "Jester" Jimenez
 f3080960@est.fib.upc.es

 Here we go:

 (1) INTRO

 e|-------------------------------------------------------------|
 B|-------------------------------------------------------------|
 G|-------------------------------------------------------------|
 D|-7-----------------------------------------------------------|
 A|-7-----------------------------------------------------------|
 E|-5-5-5-5--5-5-5--5-5-5--5-5-5---5-5-5--5-5-5--5-5-5--5-5-5---|
      pm....                                Com'on, let's go!!
      (palm muted)

 (2) Riff 1:

    B       A       E       B
 |----------------------------------------|
 |----------------------------------------|
 |----------------------------------------|
 |--4-------2-------9-------4-------------|
 |--4-------2-------9-------4-------------|
 |--2--0-2--0--0-5--7--0-7--2--5-2-0-2-0--|
 |----------------------------------------|
       pm      pm      pm       pm.....

 (3) Riff 2:

    B         D        B         A
 |----------------------------------------------|
 |----------------------------------------------|
 |--4---------7--------4---------2--------------|
 |--4---------7--------4---------2--------------|
 |--2--0-0-2--5-0-0-5--2--0-0-2--0--5-2-0-2-0---|
 |----------------------------------------------|
       pm...    pm...     pm...      pm......

 (4) Riff 3:

   E          D  E  F# E         D  E  F#
 |-------------------------------------------|
 |-------------------------------------------|
 |--9---------7--9--11-9---------7--9--11----|
 |--9---------7--9--11-9---------7--9--11----|
 |--7-7-7-7-7-5--7--9--7-7-7-7-7-5--7--9-----|
 |-------------------------------------------|
      pm.....             pm....
    B    A B  D
 |---------------------------|
 |---------------------------|
 |---------------------------|
 |--9-9--7-9--12-------------|
 |--9-9--7-9--12-------------|
 |--7-7--5-7--10--10-7-5-7-5-|
                   pm......

    E         D  E  F# E         D  E  F#
 |-------------------------------------------|
 |-------------------------------------------|
 |--9---------7--9--11-9---------7--9--11----|
 |--9---------7--9--11-9---------7--9--11----|
 |--7-7-7-7-7-5--7--9--7-7-7-7-7-5--7--9-----|
 |-------------------------------------------|
      pm.....             pm....

    D    B   G
 |---------------------------|
 |---------------------------|
 |--7---4--------------------|
 |--7---4---5----------------|
 |--5---2---5----------------|   <----- Not sure about this last pattern
 |----------3----------------|

 (5) Riff 4

    B   D  A  G   D  A  G       A
 |------------------------------------------|
 |------------------------------------------|
 |--4---7---------7-------------------------|
 |--4---7--7--5---7--7--5--5-5--7-----------|
 |--2---5--7--5---5--7--5--5-5--7-----------|
 |---------5--3------5--3--3-3--5-----------|

 (6) Riff 5
[ Tab from: http://www.guitartabs.cc/tabs/r/running_wild/fight_the_fire_of_hate_tab.html ]
    B       A  B  A  D  B       A   B           A  G          A
 |--------------------------------------------------------------|
 |--------------------------------------------------------------|
 |--4-4-4-4-2--4--2--7--4-4-4-4--2--4--4-4-4-4--2-------------2-|
 |--4-4-4-4-2--4--2--7--4-4-4-4--2--4--4-4-4-4--2--5-5-5-5-5--2-|
 |--2-2-2-2-0--2--0--5--2-2-2-2--0--2--2-2-2-2--0--5-5-5-5-5--0-|
 |-------------------------------------------------3-3-3-3-3----|

 (7) Riff 6:

     B                      A         B        A
 |-------------------------------------------------------|
 |-------------------------------------------------------|
 |--4-----------------------2---------4--------2---------|
 |--4-----------------------2---------4--------2---------|
 |--2--2-2-2--2-2-2--2-2-2--0--0-0-0--2--2-2-2-0---------|
 |-------------------------------------------------------|
       pm.................     pm....    pm...

 (8) Riff 7:

   A            B      D      A         B     G
 |-----------------------------------------------------|
 |-----------------------------------------------------|
 |-2------------4------7------2---------4--------------|
 |-2------------4------7------2---------4-----5--------|
 |-0-0-0-0-0-0--2-2-2--5-5-5--0-0-0-0-0-2-2-2-5--------|
 |--------------------------------------------3-3-3----|  <-- Not sure at all

 Ok, there's the eigth main riffs of the song. Now the order of playing it:

 INTRO (x1)
         Come on, let's go!!!

 RIFF 1  (x2)

 RIFF 2 (x2)
         Souldead fools, their hands up high
         Spreading terror, the innocent die
         Throwing bombs, the intention to kill
         Soulless slaves, no reasons, no will

 RIFF 3 (x2)
         The evil madman has taken his toll
         Possessing their minds, owning their souls
         Souls of hate, hell awaits
         Trembled with fear while they're walking its gates

 RIFF 2 (x2)
         Braindead phrase, screamed out loud
         Imbecility rules, no slip up, no doubt
         Bloodstained hands, the money rules
         Taking their share by seducing fools

 RIFF 3 (x2)
         The evil madman has taken his toll
         Possessing their minds, owning their souls
         Souls of hate, hell awaits
         Trembled with fear while they're walking its gates

 RIFF 4 (x2)
         Fight, the fire of hate
         Fight the evil before it's too late
         Fight, that life-killing flame
         Cause when the blood flows no words can ease the pain

 RIFF 5 (x1)
         The paiiinnnn...!
 RIFF 6 (x1)

 RIFF 2 (x2)
         Bewildermert when the children die
         As time goes by, no thought, no cry
         Right-wing parties, lighting the flame
         The fire of evil is ruling their game

 RIFF 3 (x2)
         The evil madman has taken his toll
         Possessing their minds, owning their souls
         Souls of hate, hell awaits
         Trembled with fear while they're walking its gates

 RIFF 4 (x2)
         Fight, the fire of hate
         Fight the evil before it's too late
         Fight, that life-killing flame
         Cause when the blood flows no words can ease the pain

 RIFF 5  (x2)

 RIFF 2 (x4)
         Guitar Solo
 RIFF 7 (x4)
         Guitar Solo
 RIFF 1 (x2)

 RIFF 2 (x2)
         Souldead fools, their hands up high
         Spreading terror, the innocent die
         Throwing bombs, the intention to kill
         Soulless slaves, no reasons, no will

 RIFF 3 (x2)
         The evil madman has taken his toll
         Possessing their minds, owning their souls
         Souls of hate, hell awaits
         Trembled with fear while they're walking its gates
 RIFF 4 (x4)
         Fight, the fire of hate
         Fight the evil before it's too late
         Fight, that life-killing flame
         Cause when the blood flows no words can ease the pain

         Fight, the fire of hate
         Fight the evil before it's too late
         Fight, that life-killing flame
         Cause when the blood flows no words can ease the pain
 RIFF 5 (repeat while lead guitar fades off)
Comments