Running Wild - Conquistadores Chords & Tabs

 

Conquistadores Chords & Tabs

Running Wild Chords & Tabs

Version: 1 Type: Tab 0 ratings
1 star 2 stars 3 stars 4 stars 5 stars
comments

Conquistadores Tab

   
 Conquistadores

 Transcription by erikgotborn@hotmail.com (erik gotborn)

 Taken from the album "Port Royal".

 Riff 1
 E -----------------------------------------------------
 B -----------------------------------------------------
 G --6--4--------------------6--4-----------------------
 D --------6--4--2-----------------6--4--6--6-6--4------
 A -----------------6--4--6-------------------------6**-
 E -----------------------------------------------------

 Riff 2
     <--4x-->
 E ---------------------------------
 B ---------------------------------
 G ---------------------------------
 D --6-6--6-6--1-1--4-4-------4-----
 A --4-4--4-4--0-0--2-2--4-4--2-0-4-
 E ----------------------2-2------2-
     x x  x x  x x  x x  x x

 Riff 3
     <-3x>
 E -------------------------------------------
 B -------------------------------------------
 G -------------------------------------------
 D --9--11--13--11--9---6--6--4---------------
 A --7---9--11---9--7---4--4--2----6--4--1--4-
 E --------------------------------4--2--0--2-
     S
     <-4x>  <-3x->
 E ----------------
 B ----------------
 G ----------------
 D --9--11--11--13-
 A --7---9---9--11-
 E ----------------
     S       S
 Riff 4
 E --------------------------------------------
 B --------------------------------------------
 G --------------------------------------------
 D --6--4--6---9---1--11---9-6--11--1-----4--6-
 A --4--2--4---7---0---9---7-4---9--0--4--2--4-
 E ------------------------------------2-------

 Riff 5
 E -------------------------------------
 B ------------------------------------
 G ------------------------------------
 D --6----9-4-6---9-11-14---11-9-11--1-
 A --4----7-2-4---7-9--12----9-7--9--0-
 E ------------------------------------

 E ---------------------------------
 B ---------------------------------
 G ---------------------------------
 D --6----9-4-6---9-11-14---11-9--1-
 A --4----7-2-4---7-9--12----9-7--0-
 E ---------------------------------

 Riff 6
 E --------------------------------------------
 B --------------------------------------------
 G --------------------------------------------
 D --6----4----6----4---9--11----4-----4-----4-
 A --4----2----4----2---7---9--0-2---0-2---0-2-
 E --------------------------------------------

        <8x>                   <8x>
 E --------------------------------------
 B --------------------------------------
 G --------------------------------------
 D --6--6-6----4-----4-----4--------9--8-
 A --4--4-4--0-2---0-2---0-2---6-6--7--6-
 E ----------------------------4-4-------
[ Tab from: http://www.guitartabs.cc/tabs/r/running_wild/conquistadores_tab.html ]
 Riff 7
 E ----------------------------------------------------
 B ----------------------------------------------------
 G --9--11--9--11--9--11--13-11-9-6--6-4---------------
 D ----------------------------------------6-4-2-4-6-4-
 A ----------------------------------------------------
 E ----------------------------------------------------

 E -------------------------------------------------------
 B ------------------------------------------------14(15)-
 G --9--11--9--11--9--11--13-11-9--11--13--11--13---------
 D -------------------------------------------------------
 A -------------------------------------------------------
 E -------------------------------------------------------
                                                    b

 Riff 8
    <4x>  <12x><6x>
 E -------------------
 B -------------------
 G -------------------
 D ----4--6-6----4--6-
 A --0-2--4-4--0-2--4-
 E -------------------

 CONQUISTADORES

 Guitar 1 riff 1, guitar 2 riff 2 x2
 Riff 2 x2
 Exploring the seas to conquer new lands
 Troops arrayed by the church
 Sanctified and blessed they set out
 Crusaders, gentlesí scourge

 Riff 3 x1
 They fight, they kill, they rape
 Under the banner of the "holy" church
 They hunt, they lie, they cheat, they steal
 Doing dirty deeds

 Riff 4 x2
 Conquistadores
 - hungry for gold, doing as the religious madman told
 Conquistadores
 - religious knight, havoc and death caused by pride

 Riff 5 x2
 Riff 2 x4
 Pearls of glass for ingets of gold
 Violence force and deceit
 Taking the wealth or the indianís life
 Their way of feeding their greed

 Heathen must turn to christianity
 Itís like "believe or die"
 Arrogance and blindness, religionís force
 Believers never ask the reason why

 Riff 3 x1
 They fight, they kill, they rape
 Under the banner of the "holy" church
 They hunt, they lie, they cheat, they steal
 Doing dirty deeds

 Riff 4 x2
 Conquistadores
 - hungry for gold, doing as the religious madman told
 Conquistadores
 - religious knight, havoc and death caused by pride

 Riff 6 x1
 Riff 2 x4
 Riff 7 x1
 Guitar 1 riff 1, guitar 2 riff 2 x2
 Riff 2 x2
 Heathen must turn to christianity
 Itís like "believe or die"
 Arrogance and blindness, religionís force
 Believers never ask the reason why

 Riff 3 x1
 They fight, they kill, they rape
 Under the banner of the "holy" church
 They hunt, they lie, they cheat, they steal
 Doing dirty deeds

 Riff 4 x4
 Conquistadores
 - hungry for gold, doing as the religious madman told
 Conquistadores
 - religious knight, havoc and death caused by pride

 Riff 5 x2
 Riff 8 x1
Comments