Running Wild - Calico Jack Chords & Tabs

 

Calico Jack Chords & Tabs

Running Wild Chords & Tabs

Version: 1 Type: Tab 0 ratings
1 star 2 stars 3 stars 4 stars 5 stars
comments

Calico Jack Tab

   
                                                              calico jack

                                                                 [ tabs ]

 Calico Jack

 Transcription by erikgotborn@hotmail.com (erik gotborn)

 Taken from the album "Port Royal".

 Some riffs are played with muted strings, and I havenít count how many
 times they play on every chord in some of them, so you have to listen to
 the record. I havenít figured out how to the intro is played, if someone
 know, please e-mail it to me.

 Riff 1
 E -----------------------------------------------
 B -----------------------------------------------
 G -----------------------------------------------
 D --9----7----5----1--4--9----7----5----4------9-
 A --7----5----3----0--2--7----5----3----2------7-
 E -----------------------------------------------

 Riff 2
     <------2x----->
 E --------------------------------------------------
 B --------------------------------------------------
 G ----------7-7-------------------------------------
 D ------9-9-----9-9-----5-5-4-4-5-5-----7-7-5-5-4-4-
 A --7-7-------------3-3-------------5-5-------------
 E --------------------------------------------------

 Riff 3
 E -------------------------------------------------
 B -------------------------------------------------
 G -------------------------------------------------
 D --9-x--9-x--9-x--9-x-9-x--9-x--9-x--12--12--5--7-
 A --7-x--7-x--7-x--7-x-7-x--7-x--7-x--10--10--3--5-
 E -------------------------------------------------

 E -----------------------------------------------
 B -----------------------------------------------
 G -----------------------------------------------
 D --9-x--9-x--9-x--9-x-9-x--9-x--9-x-------------
 A --7-x--7-x--7-x--7-x-7-x--7-x--7-x-------------
 E ------------------------------------7--7--0--3-

 Riff 4
 E ------------------------------------------------------
 B ------------------------------------------------------
 G ------------------------------------------------------
 D --1-1-1-1--4--1-1-1-1-----1-1-1-1--4------------------
 A --0-0-0-0--2--0-0-0-0--5--0-0-0-0--2--5-5-7-7-3-3-5-5-
 E -----------------------3------------------------------
     x x x x     x x x x     x x x x

 E ------------------------------------------------------
 B ------------------------------------------------------
 G ------------------------------------------------------
 D --1-1-1-1--4--1-1-1-1-----1-1-1-1--4------------------
 A --0-0-0-0--2--0-0-0-0--5--0-0-0-0--2--5-5-5-5-3-3-5-5-
 E -----------------------3------------------------------
     x x x x     x x x x     x x x x

 Riff 5
 E -----------------------------------
 B -----------------------------------
 G -----------------------------------
 D --9---12---1---4---9---12---14---7-
 A --7---10---0---2---7---10---12---5-
 E -----------------------------------

 Riff 6
 E ----------------------------------------
 B ----------------------------------------
 G ----------------------9-7---7-----------
 D --------------------------9---9-7-9-7---
 A --7-9-9-9-9-7-9-9-9-9-----------------9-
 E ----------------------------------------

 Riff 7
     <--------2x--------->
 E -------------------------------------------------
 B -------------------------------------------------
 G --------------7------------------------7---------
 D --9-9-9-9--9-----9--7-9-5-5-5-5--7--9----7-9-7---
 A --7-7-7-7---------------3-3-3-3----------------7-
 E -------------------------------------------------
     x x x x               x x x x

 E ------------------------
 B ------------------------
 G --------------7---------
 D --9-9-9-9--9----7-9-7---
 A --7-7-7-7-------------7-
 E ------------------------
     x x x x

 Riff 8
 E ------------------------------------
 B ------------------------------------
 G ------------------------------------
 D --4--4--4--4--7--4--4---------------
 A --2--2--2--2--5--2--2--2-0----2-0---
 E ---------------------------3------3-

 E ---------------------------------
 B ---------------------------------
 G ---------------------------------
 D --4--4--4--4--7--4--4--1-1---1-1-
 A --2--2--2--2--5--2--2--0-0---0-0-
 E ---------------------------------

 Riff 9a
 E ---------------------------------------
 B ---------------------------------------
 G ---------------------------------------
 D --9--9--9--9--12--9--9-----------------
 A --7--7--7--7--10--7--7--9-7-----9-7----
 E ----------------------------10------10-
[ Tab from: http://www.guitartabs.cc/tabs/r/running_wild/calico_jack_tab.html ]
 Riff 9b
 E ----------------------------------
 B ----------------------------------
 G ----------------------------------
 D --9--9--9--9--12--9--9--7-7---7-7-
 A --7--7--7--7--10--7--7--5-5---5-5-
 E ----------------------------------

 Riff 9c
 E ------------------------------
 B ------------------------------
 G ------------------------------
 D --9--9--9--9--12--9--9--4---1-
 A --7--7--7--7--10--7--7--2---0-
 E ------------------------------

 Riff 10
 E --------------------
 B --------------------
 G --------------------
 D --------------------
 A --4--------1-1-1--5-
 E --2--------0-0-0--3-
     x        x x x

 Riff 11
 E -------------------------------------
 B -------------------------------------
 G -------------------------------------
 D -----------------1-1-----1-1-------6-
 A -4-4-4-4-1-1-4-4-0-0-1-1-0-0-4-2-4-4-
 E -2-2-2-2-0-0-2-2-----0-0-------------
    x x x x x x x x x x x x x x       x

 Riff 12
 E --------------------------------------------
 B --------------------------------------------
 G --------------------------------------------
 D ----------1-1-1-1-----------7--7-6-4--------
 A --4---1---0-0-0-0--4-2-0--4-5--5-4-2--4-2-0-
 E --2---0-------------------2-----------------

 Riff 13
 E ------------------------------------------------------
 B ------------------------------------------------------
 G ------------------------------------------------------
 D -----------------------1-------------------------7--6-
 A --4--4--4--4-2-0-4--4--0----1--1--1--4-2-0-4--4--5--4-
 E --2--2--2--------2--2-------0--0--0--------2--2-------
     x  x  x        x  x       x  x  x        x  x

 Riff 14
 E ----------------------------------------
 B ----------------------------------------
 G ----------------------------------------
 D --1---------7--7-6-4---1---------7----4-
 A --0----4----5--5-4-2---0----4----5----2-
 E -------2--------------------2-----------

 Riff 15
 E -------------------------------------------------
 B -------------------------------------------------
 G -------------------------------------------------
 D --------------4----------------------------------
 A -----6--4--0-----2--4--2-----6--4--0--2--0-------
 E --2-----------------------2-----------------4--0-

 Riff 16
 E ------------------------------
 B ------------------------------
 G ------------------------------
 D --1----5-------7----9----7--5-
 A --0----3---3---5----7----5--3-
 E -----------1------------------

 Riff 17
     <-------2x------>
 E -------------------------------------------
 B -------------------------------------------
 G --------------7----------------------------
 D --9-9-9-9-7-9---9-7-----5-4-5-4------------
 A --------------------3-3---------5--5-7-5-4-
 E -------------------------------------------

 Riff 18
 E ----
 B ----
 G ----
 D --9-
 A --7-
 E ----

 Calico Jack

 Riff 1 x1
 Riff 2 x4
 Riff 3 x2
 Up with the roger, the vessel is close
 Cannons are loaded, the weapons prepared
 Set up more sails the distance grows
 They try to escape but we shanít care

 Riff 4 x1
 Riff 5 x2
         Calico Jack Listen and hear my command
         Calico Jack I lead you to victory
         Calico Jack We shall win in the end
         Calico Jack You may believe what I forsee

 Riff 6 x1
 Riff 3 x2
 Down with the roger, the vesselís too far
 Itís time for the red flag, no remorse
 Anne and Mary, more rum in my jar
 I need more refreshments before we set course

 Riff 4 x1
 Riff 7 x4
 Changing the course now, we must get in touch
 Triple afford, he must not escape
 Our breath in their neck they feel our grudge
 We have to hurry to get them in scrape

 Riff 8 x2
 Fight

 Riff 9a x1
 Riff 9b x1
 Riff 9a x1
 Riff 9c x1
 Riff 10 x1
 Riff 11 x4
 Riff 12 x4
 Riff 13 x4
 Acrid smell of smoke in the air
 White flagís rising, mainmast breaks
 Ears go deaf by my brotherís blare
 Upper deck is taken over

 Riff 14 x1
 Riff 13 x2
 All of a sudden a yelling cry
 Ports turn open what a mess
 Soldiers get out Ďní comrades die
 Desperate fights, weíre on the loose

 Riff 14 x2
 Riff 15 x15
 John Rackham
 You are charged with murder and piracy on the high seas
 In the name of Her Majesty you will be taken from this court
 And hung, drawn and quarted
 What are your last words?

 My last words? Ha ha!!
 Who do you think you are?!
 What right have you to judge over my destiny?!
 Take your pompous words and stick Ďem up were the sun donít shine
 I swear we meet again
 Bye

 Riff 16 x8
 Riff 17 x4
 Riff 2 x4
 Riff 18 x1
Comments