Running Wild - Blazon Stone Chords & Tabs

 

Blazon Stone Chords & Tabs

Running Wild Chords & Tabs

Version: 1 Type: Tab 0 ratings
1 star 2 stars 3 stars 4 stars 5 stars
comments

Blazon Stone Tab

   
intro (guit 2) x 4
|-----------------------------------------------|
|-----------------------------------------------|
|-----------------------------------------------|
|--------6---4---4--6---------------------------|
|---4--6-------7-------4-----------7--6-----4---|
|-------------------------7--5-----------7------|

pre-verse (guit 2)
|-------------------------------------------|----------------------------------------------|
|-------------------------------------------|----------------------------------------------|
|-------------------4-------------------4---|--------------------4--------------------4----|
|--6-6-6-6--6-6-6-6-2-----------6-6-6-6-2-4-|-6--6--6---6--6--6--2-----------6--6--6--2-4--|
|--4-4-4-4--4-4-4-4----7-7-7-7--4-4-4-4---2-|-4--4--4---4--4--4-----7--7--7--4--4--4----2--|
|----------------------5-5-5-5--------------|-----------------------5--5--5----------------|

x 2
|---------------------------------------------------------------------------------------------------|
|---------------------------------------------------------------------------------------------------|
|---------------------------------------------------------------------------------------------------|
|---------------------------------------------------------------------------------------------------|
|-4-444-4-444-4-444444444-4-444-4-444-7-777777777-0-000-0-000-0-0000000000-4-444-4-444-7-777-2-222--|
|---------------------------------------------------------------------------------------------------|

___end at 2
|----
|----
|-6--
|-6--
|-4--
|----

riff 0
|------------------------------------------|
|------------------------------------------|
|------------------------------------------|
|--6666666-6666666-444-6666666-6666666-444-|
|--4444444-4444444-222-4444444-4444444-222-|
|------------------------------------------|

riff1
x 2							 __end at 1	    __end at 2
---------------------------------------------------|-----------------|-----------------|
---------------------------------------------------|-----------------|-----------------|
---------------------------------------------------|-444-------------|-----------------|
---------444-666----------444-666----------444-666-|-----666-444-----|-444-------------|
-444-777----------444-777----------444-777---------|-------------777-|-----777-444-----|
---------------------------------------------------|-----------------|-------------777-|

[ Tab from: http://www.guitartabs.cc/tabs/r/running_wild/blazon_stone_tab.html ]
-----------------------------------------------------------------|
-----------------------------------------------------------------|
-------------------------------------------------666-------------|
---------666-999---------666-999---------666-999-----999-666-----|
-777-999---------777-999---------777-999---------------------999-|
-----------------------------------------------------------------|

------------------------------------------------------------------|
------------------------------------------------------------------|
------------------------------------------------------------------|
---------444-666----------444-666----------444-666-444-------4-4--|
-444-777----------444-777----------444-777-------------777---2-2--|
------------------------------------------------------------------|
riff2
x 2
-------------------------------------------------|
-------------------------------------------------|
-------------------------------------------------|
------------------------------4--444-666-2h4p2---|
--444-7-44444-7-44444-7-44444-2----------------2-|
-------------------------------------------------|

Verse:
x 2
---------------------------------------------------------------------------------------|
---------------------------------------------------------------------------------------|
-----------------------------------------------------------------------4----------64---|
------------------------------444-666-2h4p2--------------------6--666-624--6-666--424--|
--444-444-444-444-444-444-444---------------2-000-000-000-000--4--444-4-2--4-444----2--|
---------------------------------------------------------------------------------------|

pre-chorus:
-------------------------------------------------|
-------------------------------------------------|
-------------------------------------------------|
-2-4----------444-666---------444-666--2-4-------|
-0-2--444-777---------444-777----------0-2-------|
-------------------------------------------------|

Chorus:
x 2	           3rd time (x 2)
---------------    --------------------------------------------------------------|
---------------    --------------------------------------------------------------|
--------4--6-4--    -------6p4---6-----------------------9p6--6------------------|
-44--6--2--4-2--   -66-66-----6--6-4-6-4---4-------9-9-----9---9-6-9-6-----------|
-22--4---------    -44-44----------------7---7-4---7-7-----------------9-7-------|
---------------    --------------------------------------------------------------|

Solo 1:(C# - E)

riff1

verse

pre-chorus

chorus

solo2/rythm:
-----------------------------------------|
-----------------------------------------|
-----------------------------------------|
-----------------------------------2-4---|
--444-7-44444-7-44444-7-44-7-44-7--0-2---|
-----------------------------------------|

pre-chorus2: x 4
---------------------|
---------------------|
--4-4----------------|
--2-2-4-4--6-6-9-4---|
------2-2--4-4-7-2---|
---------------------|

pre-chorus

chorus

riff1

riff0 x2
Comments