Runga Bic - Sway Chords & Tabs

 

Sway Chords & Tabs

Runga Bic Chords & Tabs

Version: 1 Type: Tab 0 ratings
1 star 2 stars 3 stars 4 stars 5 stars
comments

Sway Tab

   
             /Brought to you by Tony Grover\
            /                               \
           / http://www.musicpage.de/blinded \
----------------------------------------------------------------------
#      Please Visit My Website And Sign The Guestbook To!!           #
----------------------------------------------------------------------

"Sway" By Bic Runga
Of of the Album "Drive"

{Chords You Need For This Song}>>>>>>>>>>>>>>>>>>>>>>>>>>>>>>>>>>>>>>>>
Dont Play the Strings with a X marked about it


             A Minor                   C Minor

           X         X               X         X 
           E A D G B E               E A D G B E
           -----------               -----------
2th Fret   | | X X | |    4th Fret   | X | | | |
           -----------               -----------
           | | | | | |               | | | | | |
           -----------               -----------
           | | | | | |               | | X X X |
           -----------               -----------

            D Major (I think)          E Major

           X X                               X X
           E A D G B E               E A D G B E
           -----------               -----------
2nd Fret   | | | X | X    1st Fret   | | | X | |
           -----------               ----------- 
           | | | | X |               | X X | | |
           -----------               -----------
           | | | | | |               | | | | | |
           -----------               -----------



            F# Minor (I think)                  
[ Tab from: http://www.guitartabs.cc/tabs/r/runga_bic/sway_tab.html ]
                   X X                    
           E A D G B E               
           -----------               
2nd Fret   X | | | | |     
           -----------                
           | | | | | |               
           -----------              
           | X X | | |              
           -----------               


{Lead Guitar Intro}>>>>>>>>>>>>>>>>>>>>>>>>>>>>>>>>>>>>>>>>>>>>>>>>>>>>

E--------------------------|--------------------------|
B--------------------------|--------------------------|
G-----2--1--2-----2--1--2--|-----2--1--2-----2--1--2--|
D--------------2-----------|--0-----------2-----------|
A--0-----------------------|--------------------------|
E--------------------------|--------------------------|
   
{Lead Guitar Solo}>>>>>>>>>>>>>>>>>>>>>>>>>>>>>>>>>>>>>>>>>>>>>>>>>>>>>
This is a simple, two phrase solo...


E-----------------------|--------------------|
B-----------------------|--------------------|
G--2----6h7p6--7--------|-----6h7p6--7--7/9--|
D--2--------------7--7--|--7-----------------|
A--------------------7--|--7-----------------|
E-----------------------|--------------------|


{Chord Patterns}>>>>>>>>>>>>>>>>>>>>>>>>>>>>>>>>>>>>>>>>>>>>>>>>>>>>>>>
There are to verse patterns, but they are easy to pick out in the song
if you listen to the CD

Verse Pattern 1

{| Am | Am | Cm | Cm | D | D | E | E |}

Verse Pattern 2

{| F#m | F#m | Cm | Cm | D | D | E | E |}


Chorus

{| Am | Am | E | E | F#m | F#m | Cm |  E |}


Break, Solo, & End 
(Play this pattern for the end as well, but right at the end of the 
last E, play an Am)

{| D | D | E | E |}






Comments