Run Dmc - King Of Rock Chords & Tabs

 

King Of Rock Chords & Tabs

Run Dmc Chords & Tabs

Version: 1 Type: Tab 0 ratings
1 star 2 stars 3 stars 4 stars 5 stars
comments

King Of Rock Tab

#----------------------------------PLEASE NOTE--------------------------------#
#This file is the author's own work and represents their interpretation of the#
#song. You may only use this file for private study, scholarship, or research.#
#-----------------------------------------------------------------------------#
#-- File created with Instab - http://www.pconline.com/~smcarey/instab.html --#
#-----------------------------------------------------------------------------#

run dmc:king of rock

by: onsephwhite marke

----------------------------------------
----------------------------------------
----------------------------------------
----------------------------------------
-5-2--5-7---7-7-7-7-7---10-10-10/12-----
-3-0--3-5---5-5-5-5-5---8--8--8/10------

along with occasional...

------------
------------
------------
------------
-5-2--5-7---
-3-0--3-5---

no solo...forgiv-a-ness pwease


[ Tab from: http://www.guitartabs.cc/tabs/r/run_dmc/king_of_rock_tab.html ]
Comments