Run Aways - Poop Chords & Tabs

 

Poop Chords & Tabs

Run Aways Chords & Tabs

Version: 1 Type: Tab 0 ratings
1 star 2 stars 3 stars 4 stars 5 stars
comments

Poop Tab

   
Intro
1---------------------------------------------------
2---------------------------------------------------
3---------------------------------------------------
4---------------------------------------------------
5-----0--0---0-0------------------------------------
6---0----0-0---0-0-0-0-0-0-0-0-0-2-2-2-2-4-4-4-4---- X2

Verse
1-----------------------------------------------
2-----------------------------------------------
3-----------------------------------------------
4------------9-9-9-9--11-11-11-11-7-7-7-7-------
5---7-7-7-7-------------------------------------
6----------------------------------------------- X4
[ Tab from: http://www.guitartabs.cc/tabs/r/run_aways/poop_tab.html ]
Solo
1----------0-0-0-7-9-7-5-5-5-5-5--0-0-0-0-0-0-0-0-4-5-7-5-4-------
2-----------------------------------------------------------------
3-----------------------------------------------------------------
4-----------------------------------------------------------------
5-----------------------------------------------------------------
6---0-0-0---------------------------------------------------------

Bridge
1-----------------------------------------------
2-----------------------------------------------
3-----------------------------------------------
4-----------------------------------------------
5-----------------------------------------------
6---0-0-0-0-0-0-0-0-0-0-0-0-0-0-0-0-0-0-0-0-0-0- X4

End
1---------------------------------------------------------
2---------------------------------------------------------
3-----9-----9---9-----9-----9------9----9------9----------
4---------------------------------------------------------
5---7---7-7---7---7-7----------7-7---------7-7------------
6-------------------------0-----------0----------0--------

1-----------------------------------------------
2-----------------------------------------------
3-----------------------------------------------
4-----------------------------------------------
5-----------------------------------------------
6---0-0-0-0-0-0---------------------------------
 
E F# A# E
Comments