Rumbleseat - Restless Chords & Tabs

 

Restless Chords & Tabs

Rumbleseat Chords & Tabs

Version: 1 Type: Tab 0 ratings
1 star 2 stars 3 stars 4 stars 5 stars
comments

Restless Tab

The whole song is just these chords: Em C G D	with a few small 
variations like so ---
e|--0--X--0----------------2--2-2----------| 
B|--0--X--1----------------3--3-3--3/5-----| 
G|--0--X--0----------------2--2-2----------| 
D|--2--X--2----------------0--0-0----------| 
A|--2--X--3--------------------------------| 
E|--0--X-----3/5\3--0-3-0------------------| 

e|--0-0---0--0-0--3--3-3--2--2-2-2-3/2-2-----| 
B|--0-0---1--1-1--0--0-0--3--3-3-3-3---------| 
G|--0-0---0--0-0--0--0-0--2--2-2-2-2---------| 
D|--2-2---2--2-2--0--0-0--0--0-0-0-0---------| 
A|--2-2---3--3-3--2--2-2---------------------| 
E|--0-0-----------3--3-3---------------------| 

and so on.  Then, when the words come in, it starts off with an Em7 in place 
of the Em:
e|--0--| 
B|--3--| 
G|--0--| 
D|--2--| 
A|--2--| 
E|--0--| 
[ Tab from: http://www.guitartabs.cc/tabs/r/rumbleseat/restless_tab.html ]
then just play the whole thing over through all the words and such and then 
it just goes into continuous strums:
e|--0-0-0-0-0-0-0-0-0-0-0-0-0-0-0-0-3-3-3-3-3-3-3-3-2-2-2-2-2-2-2-2----------| 
B|--0-0-0-0-0-0-0-0-1-1-1-1-1-1-1-1-0-0-0-0-0-0-0-0-3-3-3-3-3-3-3-3----------| 
G|--0-0-0-0-0-0-0-0-0-0-0-0-0-0-0-0-0-0-0-0-0-0-0-0-2-2-2-2-2-2-2-2----------| 
D|--2-2-2-2-2-2-2-2-2-2-2-2-2-2-2-2-0-0-0-0-0-0-0-0-0-0-0-0-0-0-0-0----------| 
A|--2-2-2-2-2-2-2-2-3-3-3-3-3-3-3-3-2-2-2-2-2-2-2-2--------------------------| 
E|--0-0-0-0-0-0-0-0-----------------3-3-3-3-3-3-3-3--------------------------| 

and so on and so on.  then there's just a little kinda solo part in the middle 
of the song that goes like this--
e|---------------------------------------------------------------------------| 
B|---------------------------------------------------------------------------| 
G|--9-12-9-12-9-12-9~~-9-12-9~-9-9^-9-12-9-12-9-12-9~~-9-12-9~-9-12-9~-------| 
D|---------------------------------------------------------------------------| 
A|---------------------------------------------------------------------------| 
E|---------------------------------------------------------------------------| 

e|-------------------------------------| 
B|-------------12^-15-15-15-15-12~-----| 
G|--9-12^-12~~-------------------------| 
D|-------------------------------------| 
A|-------------------------------------| 
E|-------------------------------------|
Comments