Rule 22 - 10-26-02 Chords & Tabs

 

10-26-02 Chords & Tabs

Rule 22 Chords & Tabs

Version: 1 Type: Bass Tab 0 ratings
1 star 2 stars 3 stars 4 stars 5 stars
comments

10-26-02 Bass Tab

#----------------------------------PLEASE NOTE-----------------------------#
#This file is the author's own work and represents their interpretation of the
song. You may only use this file for private study, scholarship, or research.
#--------------------------------------------------------------------------#

Rule 22 - 10/26/02 (Bass tabs)

Song starts with 3 pinch harmonics on the guitar. right after the 2nd one
the bass comes in with a slide on the E string from 12 to 2

2-2-2-----3-3-3
------3-3------
---------------
---------------

[ Tab from: http://www.guitartabs.cc/tabs/r/rule_22/10_26_02_btab.html ]
this is the slow part of the verse with no singing.

2-------3-5-2----------
--4-2-3-------4-2-3-5-3
-----------------------
-----------------------

Fast part of the verse with the singing.

2-------3-5-3-232-4-2-3-5-3-2-3
--4-2-3------------------------
-------------------------------
-------------------------------


chorus
2-22222-----------
---------3-3333333
------------------
------------------

well that's all the parts. without listening to the cd im not sure how many 
time each part is done. also if you listen to the cd some of the bass isnt 
right. we recorded it like a few weeks after we wrote it.
Comments