Ruin - Help Me Chords & Tabs

 

Help Me Chords & Tabs

Ruin Chords & Tabs

Version: 1 Type: Tab 0 ratings
1 star 2 stars 3 stars 4 stars 5 stars
comments

Help Me Tab

The Ruin...Help me

E---7------7------7-----11--12----11--12----11--12--
B-5---6--5---6--5---6-9---------9---------9---------
G--------------------------------------------------- intro
D---------------------------------------------------
A---------------------------------------------------
E---------------------------------------------------

E----------------------------------------------------
B----------------------------------------------------
G-10-10-10-10-6--6--6--6--10-10-10-10-6--6--6--6--6--
D-X--X--X--X--X--X--X--X--X--X--X--X--X--X--X--X--X--
A-11-11-11-11-7--7--7--7--11-11-11-11-7--7--7--7--7--
E-9--9--9--9--5--5--5--5--9--9--9--9--5--5--5--5--5--
[ Tab from: http://www.guitartabs.cc/tabs/r/ruin/help_me_tab.html ]
E----------------------------------------------
B----------------------------------------------
G-10-10-10-10-6--6--6--10-10-10-10-6--6--6--6--
D-X--X--X--X--X--X--X--X--X--X--X--X--X--X--X--
A-9--9--9--9--7--7--7--11-11-11-11-7--7--7--7--
E-7--7--7--7--5--5--5--9--9--9--9--5--5--5--5--

E-------------------------------------------
B-------------------------------------------
G--10--10---10---6---6----6----8-----8---8--
D-----------X-------------X--------------X--
A----11--11-11-----7---7--7-------9--9---9--
E-9---------9--5----------5--7-----------7--

E----------------------------------------------------
B----------------------------------------------------
G-10-10-10-10-6--6--6--6--8--8--8--8--6--6--6--6--6--
D-X--X--X--X--X--X--X--X--X--X--X--X--X--X--X--X--X--
A-11-11-11-11-7--7--7--7--9--9--9--9--7--7--7--7--7--
E-9--9--9--9--5--5--5--5--7--7--7--7--5--5--5--5--5--

E---------------------------------------------------
B---------------------------------------------------
G-----10----------8-------------6---------6--8--10--
D---------------------------------------------------
A--11---11-----9-------9-----7-------7-------------
E-9-------9--7----------7--5----------5-------------
Comments