Rufio - White Lights Chords & Tabs

 

White Lights Chords & Tabs

Rufio Chords & Tabs

Version: 1 Type: Bass Tab 0 ratings
1 star 2 stars 3 stars 4 stars 5 stars
comments

White Lights Bass Tab

   
-----------------------------------RUFIO-------------------------------------
--------------------------------whitelights----------------------------------

Intro:
G|------|
D|------|
A|------|
E|-222--|


G|----------------|
D|----------------|
A|----------------|
E|--44---00---222-|


Verse (x2) "Honestly..."
G|---------------------------------|
D|---------------------------------|
A|-----------------22222222--------|
E|-4444444400000000--------22222222|


Pre-Chorus(x2)  "Be honest..."
G|------------------|
D|------------------|
A|----------222-----|
E|-444---000----222-|


Chorus
G|-------------------------------------------------|
D|-------------------------------------------------|
A|----------22-2-----------------------22-2--------|
E|-44-00-22-------44-00-2-00--44-00-22------44-22-0|


Repeat Intro

[ Tab from: http://www.guitartabs.cc/tabs/r/rufio/white_lights_btab.html ]
2nd Verse
G|---------------------------------------------------------|
D|---------------------------------------------------------|
A|---------222222222222222211111111------------------------|
E|-44444444------------------------444444442222222200000000|


Pre Chorus "Be honest..."
G|----------------------------------|
D|----------------------------------|
A|-77777777777777779999999999999999/|
E|----------------------------------|


G|----------|
D|----------|
A|-------222|
E|-000------|


Chorus


Bridge "In existance..."(repeat and slowly fade out)
G|-15h16p15-|
D|----------|
A|----------|
E|----------|


Bridge Continued(x2)
G|-------------------------|
D|-------------------------|
A|---99--99-9p77-------7--9|
E|-0---00-------44444------|


Build Up To Last Chorus


G|----------------|
D|----------------|
A|-----------/9999|
E|-0000000022-----|
Comments