Rufio - Stop Whining Chords & Tabs

 

Stop Whining Chords & Tabs

Rufio Chords & Tabs

Version: 2 Type: Tab 0 ratings
1 star 2 stars 3 stars 4 stars 5 stars
comments

Stop Whining Tab

   
* - pinch harmonic
PM - palm mute
/ - slide
\ - slide
~ - let ring out
7x
7x - mute after strumming
5x
x
x - scratching
x

GUITAR 1'S PARTS:
Intro:  Guitar 1   (2x)                                 End with:
e|-----------------------------------------------------|---------------------|
B|-----------------------------------------------------|-----*---------------|
G|5-5-5-5-5-5-5-5-5-5-5-5-5-5-5-5-5-5-5-5-5-5-5-5------|-----5x--------------|
D|3-3-3-3-3-3-3-3-3-3-3-3-7-7-7-7-7-7-7-7-7-7-7-7------|---------------------|
A|-----------------------------------------------------|---------------------|
E|-----------------------------------------------------|---------------------|
  PM.............................................

2nd Intro Part:  Guitar 1  (4x)
e|---------------------------------------------------------------------------|
B|---------------------------------------------------------------------------|
G|----5-----5-----5-----5-----5-----5-----5-----5----------------------------|
D|3-3---3-3---3-3---3-3---2-2---2-2---2-2---2-2------------------------------|
A|---------------------------------------------------------------------------|
E|---------------------------------------------------------------------------|
  PM.   ...   ...   ...   ...   ...   ...   ...

Verse:  Guitar 1  "So close to..."  (2x)
e|---------------------------------------------------------------------------|
B|---------------------------------------------------------------------------|
G|--------------5-5-5--5-5-5------------------------------5-5-5--5-5-5-------|
D|3-3-3--3-3-3--5-5-5--5-5-5--7-7-7--7-7-7--7-7-7--7-7-7--5-5-5--5-5-5-------|
A|3-3-3--3-3-3--3-3-3--3-3-3--7-7-7--7-7-7--7-7-7--7-7-7--3-3-3--3-3-3-------|
E|1-1-1--1-1-1----------------5-5-5--5-5-5--5-5-5--5-5-5---------------------|
  PM.    ...    ...    ...    ...    ...    ...    ...    ...    ...

Verse Cont'd:  Guitar 1
e|---------------------------------------------------------------------------|
B|---------------------------------------------------------------------------|
G|7-7-7--7-7-7---------------------------------------------------------------|
D|7-7-7--7-7-7--7-7-7--7-7-7--5-5-5--5-5-5-----------------------------------|
A|5-5-5--5-5-5--7-7-7--7-7-7--5-5-5--5-5-5-----------------------------------|
E|--------------5-5-5--5-5-5--3-3-3--3-3-3-----------------------------------|
  PM.    ...    ...    ...    ...    ...

Chorus:  Guitar 1  "So close your eyes..."  (2x)
e|---------------------------------------------------------------------------|
B|---------------------------------------------------------------------------|
G|----------------5-5-5-5-5-5-5-5-7-7-7-7-7-7-7-7----------------------------|
D|3-3-3-3-3-3-3-3-5-5-5-5-5-5-5-5-7-7-7-7-7-7-7-7-7-7-7-7-5-5-5-5------------|
A|3-3-3-3-3-3-3-3-3-3-3-3-3-3-3-3-5-5-5-5-5-5-5-5-7-7-7-7-5-5-5-5------------|
E|1-1-1-1-1-1-1-1---------------------------------5-5-5-5-3-3-3-3------------|

End of Chorus:  Guitar 1
e|---------------------------------------------------------------------------|
B|---------------------------------------------------------------------------|
G|7-7-7-9-9-9-10-10-10-13~---------------------------------------------------|
D|x-x-x-x-x-x--x--x--x--x----------------------------------------------------|
A|5-5-5-7-7-7--8--8--8-11~---------------------------------------------------|
E|---------------------------------------------------------------------------|

Repeat 2nd Intro Part

Repeat Verse

Repeat Chorus

Bridge:  Guitar 1  "If you really did..."
e|---------------------------------------------------------------------------|
B|---------------------------------------------------------------------------|
G|7-7-7-7-7-7-7-7------------------------------------------------------------|
D|7-7-7-7-7-7-7-7-3-3-3-3-6-6-6-6-7-7-7-7-5-5-5-5-3-3-3-3-3-3-3-3-5-5--5-5---|
A|5-5-5-5-5-5-5-5-3-3-3-3-6-6-6-6-7-7-7-7-5-5-5-5-3-3-3-3-3-3-3-3-3-3--5-5---|
E|----------------1-1-1-1-4-4-4-4-5-5-5-5-3-3-3-3-1-1-1-1-1-1-1-1------------|

Bridge Cont'd:  Guitar 1
e|---------------------------------------------------------------------------|
B|---------------------------------------------------------------------------|
G|7-7-7-7-7-7-7-7------------------------------------------------------------|
D|7-7-7-7-7-7-7-7-3-3-3-3-6-6-6-6-7-7-7-7-5-5-5-5-3-3-3-3-3-3-3-3-5-5-5-5-5-5|
A|5-5-5-5-5-5-5-5-3-3-3-3-6-6-6-6-7-7-7-7-5-5-5-5-3-3-3-3-3-3-3-3-5-5-5-5-5-5|
E|----------------1-1-1-1-4-4-4-4-5-5-5-5-3-3-3-3-1-1-1-1-1-1-1-1-3-3-3-3-3-3|
                                                                  PM.........

Interlude:  Guitar 1  "You analyze it..."
e|---------------------------------------------------------------------------|
B|---------------------------------------------------------------------------|
G|-------------------------5-5------------------------------------------5-5--|
D|7-7-7-7-7x----3-3-3-3-3--5-5-5-5--7-7-7-7-7x--x-x-x-x-x-x---3-3-3-3-3-5-5--|
A|7-7-7-7-7x----3-3-3-3-3--3-3-5-5--7-7-7-7-7x--x-x-x-x-x-x---3-3-3-3-3-3-3--|
E|5-5-5-5-5x--5\1-1-1-1-1------3-3--5-5-5-5-5x--x-x-x-x-x-x-5\1-1-1-1-1------|

Interlude Cont'd:  Guitar 1
e|---------------------------------------------------------------------------|
B|---------------------------------------------------------------------------|
G|---------------------5-5-5-5-5-5-5-5-----------------5-5-5-----------------|
D|5-5--7-7-7-7-7-7-7-7-5-5-5-5-5-5-5-5-3-3-3-3-3-3-3-3-5-5-5-5-5-5-----------|
A|5-5--7-7-7-7-7-7-7-7-3-3-3-3-3-3-3-3-3-3-3-3-3-3-3-3-3-3-3-5-5-5-----------|
E|3-3--5-5-5-5-5-5-5-5-----------------1-1-1-1-1-1-1-1-------3-3-3-----------|
[ Tab from: http://www.guitartabs.cc/tabs/r/rufio/stop_whining_tab_ver_2.html ]
Interlude Cont'd:  Guitar 1
e|---------------------------------------------------------------------------|
B|---------------------------------------------------------------------------|
G|----------------5-5-5-5-5-5-5-5-7-7-7-7-7-7-7-7-9-9-9-9-9x-----------------|
D|7-7-7-7-7-7-7-7-5-5-5-5-5-5-5-5-x-x-x-x-x-x-x-x-x-x-x-x-x------------------|
A|7-7-7-7-7-7-7-7-3-3-3-3-3-3-3-3-5-5-5-5-5-5-5-5-7-7-7-7-7x-----------------|
E|5-5-5-5-5-5-5-5------------------------------------------------------------|

Repeat Chorus

Repeat End of Chorus

GUITAR 2'S PARTS:
Intro:  Guitar 2                                        End with:
e|-----------------------------------------------------|---------------------|
B|-----------------------------------------------------|-----*---------------|
G|5-5-5-5-5-5-5-5-5-5-5-5-5-5-5-5-5-5-5-5-5-5-5-5------|-----5x--------------|
D|3-3-3-3-3-3-3-3-3-3-3-3-7-7-7-7-7-7-7-7-7-7-7-7------|---------------------|
A|-----------------------------------------------------|---------------------|
E|-----------------------------------------------------|---------------------|
  PM.............................................

Intro Part 2:  Guitar 2  (4x)
e|---------------------------------------------------------------------------|
B|----10-----10-----10-----10-----10-----10-----10-----10--------------------|
G|---------------------------------------------------------------------------|
D|8-8----8-8----8-8----8-8----7-7----7-7----7-7----7-7-----------------------|
A|---------------------------------------------------------------------------|
E|---------------------------------------------------------------------------|
  PM.    ...    ...    ...    ...    ...    ...    ...

Verse:  Guitar 2  "So close to..."  (2x)
e|---------------------------------------------------------------------------|
B|----------------------------------------------------5-----5-----5-----5----|
G|----5-----5-----5-----5-----5-----5-----5-----5----------------------------|
D|3-3---3-3------------------------------------------------------------------|
A|------------3-3---3-3---0-0---0-0---0-0---0-0---3-3---3-3---5-5---5-5------|
E|---------------------------------------------------------------------------|
  PM.   ...   ...   ...   ...   ...   ...   ...   ...   ...   ...   ...

Verse Cont'd:  Guitar 2     End with:
e|-------------------------|--------------------------------------------------|
B|-------------------------|--------------------------------------------------|
G|----5-----5-----5-----5--|--------------------------------------------------|
D|-------------------------|7-7-7-7-7-5-5-5-5-5-5-----------------------------|
A|-------------------------|7-7-7-7-7-5-5-5-5-5-5-----------------------------|
E|5-5---5-5---3-3---3-3----|5-5-5-5-5-3-3-3-3-3-3-----------------------------|
  PM.   ...   ...   ...

Chorus:  Guitar 2  "So close your eyes..."  (2x)
e|---------------------------------------------------------------------------|
B|---------------------------------------------------------------------------|
G|10-10-10-10-10-10-10-10-9-9-9-9-9-9-12-10-9-10-10-10-10-10-10-10-10-9-9-9-9|
D|-x--x--x--x--x--x--x--x-x-x-x-x-x-x--x--x-x--x--x--x--x--x--x--x--x-x-x-x-x|
A|-8--8--8--8--8--8--8--8-7-7-7-7-7-7-10--8-7--8--8--8--8--8--8--8--8-7-7-7-7|
E|---------------------------------------------------------------------------|

Chorus Cont'd:  Guitar 2    End With:
e|-------------------------|-------------------------------------------------|
B|-------------------------|-------------------------------------------------|
G|9-9-7-7-7-7-7-7----------|-7-7-7-9-9-9-10-10-10-13~------------------------|
D|x-x-x-x-x-x-x-x----------|-x-x-x-x-x-x--x--x--x--x-------------------------|
A|7-7-5-5-5-5-5-5----------|-5-5-5-7-7-7--8--8--8-11~------------------------|
E|-------------------------|-------------------------------------------------|

Repeat Intro Part 2

Repeat Verse

Repeat Chorus

Bridge:  Guitar 2  "If you really did..."
e|---------------------------------------------------------------------------|
B|---------------------------------------------------------------------------|
G|7-7-7-7-7-7-7-7/9-5-5-5-5-5-5-13-13-13-13-13-13-5-5-5-5-5-5-5-5-4-4-4-4-4-4|
D|x-x-x-x-x-x-x-x-x-x-x-x-x-x-x--x--x--x--x--x--x-x-x-x-x-x-x-x-x-x-x-x-x-x-x|
A|5-5-5-5-5-5-5-5/7-3-3-3-3-3-3-11-11-11-11-11-11-3-3-3-3-3-3-3-3-2-2-2-2-2-2|
E|---------------------------------------------------------------------------|

Bridge Cont'd:  Guitar 2       End with this 2nd time:
e|----------------------------|----------------------------------------------|
B|------------------------5-5-|----------------------------------------------|
G|4-4-5-5-5-5-5-5-5-5-5-5-----|8-8-8-8-8-8-8-8-------------------------------|
D|x-x-x-x-x-x-x-x-x-x---------|x-x-x-x-x-x-x-x-------------------------------|
A|2-2-3-3-3-3-3-3-3-3---------|6-6-6-6-6-6-6-6-------------------------------|
E|----------------------------|----------------------------------------------|

Interlude:  Guitar 2  "You analyze it..."
e|---------------------------------------------------------------------------|
B|---------------------------------------------------------------------------|
G|-------------------------5-5-------------------------------------------5-5-|
D|7-7-7-7-7x----3-3-3-3-3--3-3-5-5--7-7-7-7-7x--x-x-x-x-x-x----3-3-3-3-3-3-3-|
A|7-7-7-7-7x----3-3-3-3-3------5-5--7-7-7-7-7x--x-x-x-x-x-x----3-3-3-3-3-----|
E|5-5-5-5-5x-12\1-1-1-1-1------3-3--5-5-5-5-5x--x-x-x-x-x-x-12\1-1-1-1-1-----|

Interlude Cont'd:  Guitar 2
e|---------------------------------------------------------------------------|
B|---------------------------------------------------------------------------|
G|-----14-14-14-14-14-14-14-14-14-14-14-14-14-14-14-14-14-14-14-14-14-14-14--|
D|5-5---x--x--x--x--x--x--x--x--x--x--x--x--x--x--x--x--x--x--x--x--x--x--x--|
A|5-5--12-12-12-12-12-12-12-12-12-12-12-12-12-12-12-12-12-12-12-12-12-12-12--|
E|3-3------------------------------------------------------------------------|

Repeat Chorus

Repeat End of Chorus

By: Cruzinespy7@aol.com
Comments