Rufio - Still Chords & Tabs

 

Still Chords & Tabs

Rufio Chords & Tabs

Version: 2 Type: Bass Tab 0 ratings
1 star 2 stars 3 stars 4 stars 5 stars
comments

Still Bass Tab

   
-------------------------------------------------------------------------------
			     Still - Rufio
-------------------------------------------------------------------------------

Tabbed By : Kirkus
e-mail: Kirkus138@gmail.com

Tuning: Standard (EADG)



  Intro  x 1
G|----------------------------------------------------------------------|
D|-----7--9--11-14-7--9--11----------7----9----11--14-----7----9---11---|
A|--0-0--0--0--0--0--0--0--------7-7---7----7-----7---7-----7----7------|
E|----------------------------------------------------------------------|

G|-----------------------------------------------------------------------------------|
D|-0-0-7--0-9--0-11--0-14--0--7--0--9--0---11--0-0--7--0-9-0-11-0-14-0-12-0--11h12-11|
A|-----------------------------------------------------------------------------------|
E|-----------------------------------------------------------------------------------|
     Verse Part 1
G|---------------------------------------------------------------------------|
D|--------------------------------------------------------7777777777-00-77-55|
A|-------------------------------------5555555555555555----------------------|
E|-2222222222222222--0000000000000000----------------------------------------|
     Verse Part 2
G|---------------------------------------------------------------------------|
D|------------------------------------------------------------------7-ring---|
A|---------------------------------------555555555555555555555555---5--ring--|
E|--2222222222222222--0000000000000000---------------------------------------|
[ Tab from: http://www.guitartabs.cc/tabs/r/rufio/still_btab_ver_2.html ]
Chorus i guess   x4
G|---------------------------------------------------------------------------|
D|---------------------------------------------------------------------------|
A|--------------------------55555555555555-----------------------------------|
E|---22222222---00000000-----------------------------------------------------|
    Bridge #1
G|---------------------------------------------------------------------------|
D|---------------------------------------------------------------------------|
A|--55555555--77777777--99999999-77777777------------------------------------|
E|---------------------------------------------------------------------------|
     CONT.
G|-------------------------------9-9-------------9-9-------------------------|
D|---------------------------7h9-----9-7-7-7-9-7-----9-7---------------------|
A|---55555555--77777777--9-9-------------------------------------------------|
E|---------------------------------------------------------------------------|
      CONT.
G|---------------------------------------------------------------------------|
D|---------------------------------------------------------------------------|
A|--55555555--77777777--99999999-77777777--5555555555555555--7777777777777777|
E|---------------------------------------------------------------------------|
      CONT.
G|----------------------------------------------------------------------------|
D|------------------------------------------------------77779999--------------|
A|--00000000000000-5555555555555555--0000000000000000---55557777--------------|
E|----------------------------------------------------------------------------|
      CONT.
G|---------------------------------------------------------------------------|
D|---------------------------------------------------------------------------|
A|--0000-0000-5555-5555-----------5----7-ring--------------------------------|
E|----------------------2222-2222--------------------------------------------|
  Verse Part 2 
  Chorus x4
  Bridge #1 (yes the whole thing)
   Bridge #2
G|---------------------------------------------------------------------------|
D|-------7-----------------------------------7-------------------------------|
A|----7----7--55-5-5-5-77-7-7-7 x3 -------7----7---55-5-5-55-5-5-22-2-2-22-22|
E|-5-----------------------------------5-------------------------------------|
  Outro
G|-----------------------------------------------------2-2-2-2--4-4-4-4------|
D|----------------------------------------------------0-0-0-0--2-2-2-2-------|
A|--00000000000000-5555555555555555--0000000000000000------------------------|
E|---------------------------------------------------------------------------|

G|---------------------------------------------------------------------------|
D|---------------------------------------------------------------------------|
A|--0000-0000-5555-5555-------------5555-7777--------------------------------|
E|-----------------------2222-2222-------------------------------------------|

G|---------------------------------------------------------------------------|
D|---------------------------------------------------------------------------|
A|--0000-0000-5555-5555---------------5------7-----5-ring--------------------|
E|-----------------------2222-2222-------------------------------------------|

| /  slide up
| \  slide down
| h  hammer-on
| p  pull-off
| ~  vibrato
| +  harmonic
| x  Mute note
===============================================================================
Comments