Rufio - Still Chords & Tabs

 

Still Chords & Tabs

Rufio Chords & Tabs

Version: 1 Type: Bass Tab 0 ratings
1 star 2 stars 3 stars 4 stars 5 stars
comments

Still Bass Tab

Rufio - Still
Tabbed By: Conor
EMail: skaterpunk50@hotmail.com


i've seen this tabbed a few times with a few mistakes in all of them.
im pretty sure of this tab, but if you find any mistakes email me
skaterpunk50@hotmail.com

intro/solo
G|-------6-9-6---6--------6-9-6---6----2-4-6-9-6-4-6-----2-4-6-9-676-4
D|---7-9-------9------7-9-------9---00>--------------00>--------------
A|00>--------------77>------------------------------------------------
E|--------------------------------------------------------------------

intro cont'd
G|--------------------------------------------------------------------
D|-----------------------------77777-00-77-55-------------------------
A|--------------------55555555----------------------------------------
E|-22222222-000000000-------------------------------------------------


G|--------------------------------------------------------------------
D|--------------------------------------------------------------------
A|--------------------5555555555555555555/12--------------------------
E|-22222222-000000000-------------------------------------------------

verse
G|--------------------------------------------------------------------
D|--------------------------------------------------------------------
A|---------------------555555555555555--------------------------------
E|-22222222-000000000-------------------------------------------------

chorus
G|------------------------------------------------99--------99--------
D|---------------------------------------------7h9--7h9--7h9--7h9-----
A|-555555-777777-999999-777777-555555-777777-99--------77-------------
E|--------------------------------------------------------------------

chorus cont'd
G|--------------------------------------------------------------------
D|--------------------------------------------------------------------
A|-555555-777777-999999-777777-5555555555-7777777---------------------
E|--------------------------------------------------------------------

post chorus
G|--------------------------------------------------------------------
D|--------------------------------------------7--7--9--9--------------
A|-000000000000-5555555555555-0000000000000-55-55-77-77---------------
E|--------------------------------------------------------------------
[ Tab from: http://www.guitartabs.cc/tabs/r/rufio/still_btab.html ]
G|--------------------------------------------------------------------
D|------------------------------------------7>---9>-------------------
A|--------------5555555555555---------------5>---7>-------------------
E|-222222222222---------------2222222222222---------------------------

bridge 3x | 1x
G|-------------------------|------------------------------------------
D|-4-7-6-------------------|-4-7-6------------------------------------
A|-------7-55-5-55(77-7-77)|-------7-55-5-55-55-5-44----2-------2-----
E|-----------------00-0-00-|-------------------------00---00-00---00--

thats it. im pretty sure of everything.
===========


STILL - Rufio

Originally Tabbed By: Colin Callahan A*Common*Ground (www.mp3.com/acommonground)
Edited By: Vo' (budterfleye@cs.com)

: Repeat as needed
> Strum

Intro:                                                             
G|---------9-----7:|-----4---7---4-6|-----7---9---6h7p6-|	   
D|-x-0---0-----9--:|-x-0---0---0----|-x-0---0---0-------| Repeat   
A|-----9-----0----:|----------------|-------------------|  Once    
E|----------------:|----------------|-------------------|	   

Intro #2	       Verse:
G|-------------|       G|----------|
D|-------0>-7>-|       D|----------|
A|-0>----------|       A|-------5>-|
E|----0>-------|       E|-2>-0>----|

Bridge:
G|-----------------------------------6h7------------------------------------|
D|-0000-2222-4444--2222-0000-2222--7-----9-7-9-7--0000-2222-4444-2222-0>-2>-|
A|--------------------------------------------------------------------------|
E|--------------------------------------------------------------------------|

Chorus:                                              Bridge #2:
G|------------2---2---4---4-------------| Intro #2   G|---------------:|---------------|
D|----------0---0---2---2---------------| Verse      D|-----7---------:|-------7-------|
A|-0>-5>-0>-----------------0>-5>----5-7| Bridge     A|---7---7-5>-7>-:|-7---7---5>-2>-|
E|--------------------------------2>----| Chorus     E|-5-------------:|---5-----------|

Outro:
G|------------2---2---4---4--------------------------------| 
D|----------0---0---2---2----------------------------------|
A|-0>-5>-0>-----------------0>-5>----5>-7>--0>-5>----5-7-5-|
E|--------------------------------2>--------------2>-------|

It is easier to play and sounds more clear this way. So, feel free to e-mail
me with any comments.
Comments