Rufio - She Cries Chords & Tabs

 

She Cries Chords & Tabs

Rufio Chords & Tabs

Version: 1 Type: Tab 0 ratings
1 star 2 stars 3 stars 4 stars 5 stars
comments

She Cries Tab

   
-------------------------------------------------------------------------------
                                  SHE CRIES - Rufio      
-------------------------------------------------------------------------------

By:  David


PM - palm mute
~ - let ring out
h - hammer on
/ - slide
2x
2x - mute after strumming
0x

Bass Intro

GUITAR 1'S PARTS:
Intro:  Guitar 1  (Strum away!)
e|--9--9--9--9--9--9--9--9--9--9--9--9--9--9--9--9--9--9--9--9--9--9--9--9---|
B|-10-10-10-10-10-10-10-10-10-10-10-10-10-10-10-10-10-10-10-10-10-10-10-10---|
G|---------------------------------------------------------------------------|
D|---------------------------------------------------------------------------|
A|---------------------------------------------------------------------------|
E|---------------------------------------------------------------------------|

Verse:  Guitar 1  Come again she says
                  Headed for the longest road
                  One too many times
                  He's beaten you down to the bone

Pre Chorus:  Guitar 1  "So you sail away..."  (4x)
e|---------------------------------------------------------------------------|
B|---------------------------------------------------------------------------|
G|--------9-----9---------9-----9---------9-9-9-9---------9-9-9-9------------|
D|----------------------------------------7-7-7-7---------7-7-7-7------------|
A|7-7-7-7---7-7---9-9-9-9---9-9---5-5-5-5---------5-5-5-5--------------------|
E|---------------------------------------------------------------------------|
  PM.....   ...   .......   ...   .......         .......

Interlude:  Guitar 1  (2x)
e|---------------------------------------------------------------------------|
B|---------------------------------------------------------------------------|
G|---------------------------------------------------------------------------|
D|7-7-7-7-7-7-7-7-7-7-4-4-4-4-4-2-2-2-2-2------------------------------------|
A|7-7-7-7-7-5-5-5-5-5-4-4-4-4-4-2-2-2-2-2------------------------------------|
E|5-5-5-5-5-5-5-5-5-5-2-2-2-2-2-0-0-0-0-0------------------------------------|

2nd Verse:  Guitar 1  
e|---------------------------------------------------------------------------|
B|---------------------------------------------------------------------------|
G|---------------------------------------------------------------------------|
D|---7~-------7-7-7-7-7-7-7-7-7-7-7-7-7-7-7-7-4-4-4-4-4-4-4-4-2-2-2-2-2-2-2-2|
A|---7~-------7-7-7-7-7-7-7-7-5-5-5-5-5-5-5-5-4-4-4-4-4-4-4-4-2-2-2-2-2-2-2-2|
E|---5~-------5-5-5-5-5-5-5-5-5-5-5-5-5-5-5-5-2-2-2-2-2-2-2-2-0-0-0-0-0-0-0-0|
              PM.............................................................

Repeat Pre Chorus

Chorus:  Guitar 1  "Ohhhh, she cries..."
e|---------------------------------------------------------------------------|
B|---------------------------------------------------------------------------|
G|-----------------------------------------------------------------7-6h7-6~--|
D|7-7-7-7-7-7-7-7-7-7-7-7-7-7-7-7-7-7-7-4-4--4-4-4-4--2-2--2-2-2-2-7---------|
A|7-7-7-7-7-7-7-7-5-5-5-5-5-5-5-5-5-5-5-4-4--4-4-4-4--2-2--2-2-2-2-5---------|
E|5-5-5-5-5-5-5-5-5-5-5-5-5-5-5-5-5-5-5-2-2--2-2-2-2--0-0--0-0-0-0-----------|
                  PM...   .....   ...

Chorus Cont'd:  Guitar 1
e|---------------------------------------------------------------------------|
B|---------------------------------------------------------------------------|
G|6h7-6----------------------------------------------------------------------|
D|------7-7-7-7-7-7-7-7-7-7-7-7-7-7-7-7-7-7-7-4-4--4-4-4-4--2-2--2-2-2-2-----|
A|------7-7-7-7-7-7-7-7-5-5-5-5-5-5-5-5-5-5-5-4-4--4-4-4-4--2-2--2-2-2-2-----|
E|------5-5-5-5-5-5-5-5-5-5-5-5-5-5-5-5-5-5-5-2-2--2-2-2-2--0-0--0-0-0-0-----|
                        PM...   .....   ...

Chorus Cont'd:  Guitar 1
e|---------------------------------------------------------------------------|
B|---------------------------------------------------------------------------|
G|-7-6h7-6~------------------------------------------------------------------|
D|-7-------------------------------------------------------------------------|
A|-5-------------------------------------------------------------------------|
E|---------------------------------------------------------------------------|

Next Part:  Guitar 1  "See this is real..."  (2x)
e|---------------------------------------------------------------------------|
B|---------------------------------------------------------------------------|
G|---------------------------------------------------------------------------|
D|4-4-4-4-4-4-4-4-2-2-2-2-2-2-2-2-7-7-7-7-7-7-7-7-7-7-7-7-7-7-7-7------------|
A|4-4-4-4-4-4-4-4-2-2-2-2-2-2-2-2-7-7-7-7-7-7-7-7-5-5-5-5-5-5-5-5------------|
E|2-2-2-2-2-2-2-2-0-0-0-0-0-0-0-0-5-5-5-5-5-5-5-5-5-5-5-5-5-5-5-5------------|
  PM.............................................................

Next Part Cont'd:  Guitar 1  (2x)
e|---------------------------------------------------------------------------|
B|---------------------------------------------------------------------------|
G|---------------------------------------------------------------------------|
D|----2-----2-----2-----2----------------------------------------------------|
A|----------------------------7-----7-----7-----7----------------------------|
E|2-2---2-2---0-0---0-0---5-5---5-5---5-5---5-5------------------------------|
  PM.   ...   ...   ...   ...   ...   ...   ...

Pre Chorus:  Guitar 1  "So you sail away..."  (2x)
e|---------------------------------------------------------------------------|
B|---------------------------------------------------------------------------|
G|---------------------------------------------------------------------------|
D|2-2-2-2-2-2-4-4-4-4-4-4-7-7-7-7-7-7-7-7-7-7-7-7----------------------------|
A|2-2-2-2-2-2-4-4-4-4-4-4-5-5-5-5-5-5-5-5-5-5-5-5----------------------------|
E|0-0-0-0-0-0-2-2-2-2-2-2-5-5-5-5-5-5-5-5-5-5-5-5----------------------------|

Pre Chorus Cont'd:  Guitar 1
e|---------------------------------------------------------------------------|
B|---------------------------------------------------------------------------|
G|--------9-----9---------9-----9---------9-9-9-9---------9-9-9-9------------|
D|----------------------------------------7-7-7-7---------7-7-7-7------------|
A|7-7-7-7---7-7---9-9-9-9---9-9---5-5-5-5---------5-5-5-5--------------------|
E|---------------------------------------------------------------------------|
  PM.....   ...   .......   ...   .......         .......

Pre Chorus Cont'd:  Guitar 1
e|---------------------------------------------------------------------------|
B|---------------------------------------------------------------------------|
G|---------------------------------------------------------------------------|
D|2-2-2-2-2-2-4-4-4-4-4-4-7-7-7-7-7-7-7-7-7-7-7-7-7-7x-----------------------|
A|2-2-2-2-2-2-4-4-4-4-4-4-5-5-5-5-5-5-5-5-5-5-5-5-5-5x-----------------------|
E|0-0-0-0-0-0-2-2-2-2-2-2-5-5-5-5-5-5-5-5-5-5-5-5-5-5x-----------------------|

Repeat Chorus

End of Chorus:  Guitar 1
e|---------------------------------------------------------------------------|
B|---------------------------------------------------------------------------|
G|---------------------------------------------------------------------------|
D|-7-7-7-7~------------------------------------------------------------------|
A|-5-5-5-5~------------------------------------------------------------------|
E|-5-5-5-5~------------------------------------------------------------------|

2nd Interlude:  Guitar 1  (2x)
e|---------------------------------------------------------------------------|
B|---------------------------------------------------------------------------|
G|---------------------------------------------------------------------------|
D|4-4-4-4-4-4-4-4-2-2-2-2-2-2-2-2-7-7-7-7-7-7-7-7-7-7-7-7-7-7-7-7------------|
A|4-4-4-4-4-4-4-4-2-2-2-2-2-2-2-2-5-5-5-5-5-5-5-5-5-5-5-5-5-5-5-5------------|
E|2-2-2-2-2-2-2-2-0-0-0-0-0-0-0-0-5-5-5-5-5-5-5-5-5-5-5-5-5-5-5-5------------|
  PM.............................................................

2nd Interlude Cont'd:  Guitar 1
e|9----9----9----9----7---7---7---7---9----9----9----9----9----9----9----9---|
B|--10---10---10---10---9---9---9---9---10---10---10---10---10---10---10---10|
G|---------------------------------------------------------------------------|
D|---------------------------------------------------------------------------|
A|---------------------------------------------------------------------------|
E|---------------------------------------------------------------------------|
  PM.........................................................................
[ Tab from: http://www.guitartabs.cc/tabs/r/rufio/she_cries_tab.html ]
2nd Interlude Cont'd:  Guitar 1
e|9----9----9----9----10----10----10----10----9----9----9----9----12-12-12-12|
B|--10---10---10---10----10----10----10----10---10---10---10---10------------|
G|---------------------------------------------------------------------------|
D|---------------------------------------------------------------------------|
A|---------------------------------------------------------------------------|
E|---------------------------------------------------------------------------|
  PM.............................................................

2nd Interlude Cont'd:  Guitar 1
e|12-12-12-12----------------------------------------------------------------|
B|---------------------------------------------------------------------------|
G|---------------------------------------------------------------------------|
D|---------------------------------------------------------------------------|
A|---------------------------------------------------------------------------|
E|---------------------------------------------------------------------------|

Repeat Chorus:  Guitar 1  (Strumming a little different)

Ending:  Guitar 1
e|---------------------------------------------------------------------------|
B|---------------------------------------------------------------------------|
G|---------------------------------------------------------------------------|
D|2-2-2-2-2x--4x-------------------------------------------------------------|
A|2-2-2-2-2x--4x-------------------------------------------------------------|
E|0-0-0-0-0x--2x-------------------------------------------------------------|

GUITAR 2'S PARTS:
Intro:  Guitar 2  (6x)
e|---------------------------------------------------------------------------|
B|---------------------------------------------------------------------------|
G|----6-----6-----6---7-6----------------------------------------------------|
D|7-7---7-7---7-7---7--------------------------------------------------------|
A|---------------------------------------------------------------------------|
E|---------------------------------------------------------------------------|

Verse:  Guitar 2  "Come again she says..."  (Comes in on 2nd bar)
e|---------------------------------------------------------------------------|
B|---------------------------------------------------------------------------|
G|----6-----6-----6---7-6----------------------------------------------------|
D|7-7---7-7---7-7---7--------------------------------------------------------|
A|---------------------------------------------------------------------------|
E|---------------------------------------------------------------------------|

Pre Chorus:  Guitar 2  "So you sail away..."  (2x)
e|---------------------------------------------------------------------------|
B|---------------------------------------------------------------------------|
G|----6-----6-----6---7-6----------------------------------------------------|
D|7-7---7-7---7-7---7--------------------------------------------------------|
A|---------------------------------------------------------------------------|
E|---------------------------------------------------------------------------|

Pre Chorus Cont'd:  Guitar 2
Pre Chorus:  Guitar 1  "So you sail away..."  (3x)
e|---------------------------------------------------------------------------|
B|---------------------------------------------------------------------------|
G|--------9-----9---------9-----9---------9-9-9-9---------9-9-9-9------------|
D|----------------------------------------7-7-7-7---------7-7-7-7------------|
A|7-7-7-7---7-7---9-9-9-9---9-9---5-5-5-5---------5-5-5-5--------------------|
E|---------------------------------------------------------------------------|
  PM.....   ...   .......   ...   .......         .......

Interlude:  Guitar 2  (Just keep on strumming it)
e|--9--9--9------------------------------------------------------------------|
B|-10-10-10------------------------------------------------------------------|
G|---------------------------------------------------------------------------|
D|---------------------------------------------------------------------------|
A|---------------------------------------------------------------------------|
E|---------------------------------------------------------------------------|

Repeat Verse

Repeat Pre Chorus

Chorus:  Guitar 2  "Ohhhhh, she cries..."  (Whole part 2x)
e|---------------------------------------------------------------------------|
B|---------------------------------------------------------------------------|
G|9-9-9-9-9-9-9-9-7-7-7-7-7-7-7-7-7-7-7-11-11--11-11-11-11--13-13--13-13-13--|
D|x-x-x-x-x-x-x-x-x-x-x-x-x-x-x-x-x-x-x--x--x---x--x--x--x---x--x---x--x--x--|
A|7-7-7-7-7-7-7-7-5-5-5-5-5-5-5-5-5-5-5--9--9---9--9--9--9--11-11--11-11-11--|
E|---------------------------------------------------------------------------|
                  PM...   .....   ...

Chorus Cont'd:  Guitar 2
e|---------------------------------------------------------------------------|
B|---------------------------------------------------------------------------|
G|14~--6h7-6--6h7-6-7/9------------------------------------------------------|
D|-x-------------------------------------------------------------------------|
A|12~------------------------------------------------------------------------|
E|---------------------------------------------------------------------------|

Next Part:  Guitar 2  "See this is real..."  (4x)
e|---------------------------------------------------------------------------|
B|---------------------------------------------------------------------------|
G|---------------------------------------------------------------------------|
D|7-7-7-7-7-7-7-7-6-6-6-6-6-6-6-6-7-7-7-7-7-7-7-7-7-7-7-7-7-7-7-7------------|
A|---------------------------------------------------------------------------|
E|---------------------------------------------------------------------------|
  PM.............................................................

End of Next Part:  Guitar 2
e|---------------------------------------------------------------------------|
B|---------------------------------------------------------------------------|
G|9-7-6---9-7-6--------------------------------------------------------------|
D|------7-------7------------------------------------------------------------|
A|---------------------------------------------------------------------------|
E|---------------------------------------------------------------------------|

Pre Chorus:  Guitar 2  "Sail away..."
e|---------------------------------------------------------------------------|
B|---------------------------------------------------------------------------|
G|9-9-9-9-9-9-11-11-11-11-11-11-7-7-7-7-7-7-7-7-7-7-7-7-9-9-9-9-9-9-11-11-11-|
D|x-x-x-x-x-x--x--x--x--x--x--x-x-x-x-x-x-x-x-x-x-x-x-x-x-x-x-x-x-x--x--x--x-|
A|7-7-7-7-7-7--9--9--9--9--9--9-5-5-5-5-5-5-5-5-5-5-5-5-7-7-7-7-7-7--9--9--9-|
E|---------------------------------------------------------------------------|

Pre Chorus Cont'd:  Guitar 2
e|---------------------------------------------------------------------------|
B|---------------------------------------------------------------------------|
G|11-11-11-7-7-7-7-7-7-7-7-7-7-7-7---------9-----9---------9-----9-----------|
D|-x--x--x-x-x-x-x-x-x-x-x-x-x-x-x-------------------------------------------|
A|-9--9--9-5-5-5-5-5-5-5-5-5-5-5-5-7-7-7-7---7-7---9-9-9-9---9-9---5-5-5-5---|
E|---------------------------------------------------------------------------|
                                   PM.....   ...   .......   ...   .......


Pre Chorus Cont'd:  Guitar 2
e|---------------------------------------------------------------------------|
B|---------------------------------------------------------------------------|
G|9-9-9-9---------9-9-9-9-9-9-9-9-9-9-11-11-11-11-11-11-7-7-7-7-7-7-7-7-7-7-7|
D|7-7-7-7---------7-7-7-7-x-x-x-x-x-x--x--x--x--x--x--x-x-x-x-x-x-x-x-x-x-x-x|
A|--------5-5-5-5---------7-7-7-7-7-7--9--9--9--9--9--9-5-5-5-5-5-5-5-5-5-5-5|
E|---------------------------------------------------------------------------|
          PM.....

Repeat Chorus

2nd Interlude:  Guitar 2  (4x)
e|---------------------------------------------------------------------------|
B|---------------------------------------------------------------------------|
G|---------------------------------------------------------------------------|
D|7-7-7-7-7-7-7-7-6-6-6-6-6-6-6-6-7-7-7-7-7-7-7-7-7-7-7-7-7-7-7-7------------|
A|---------------------------------------------------------------------------|
E|---------------------------------------------------------------------------|
  PM.............................................................

2nd Interlude Cont'd:  Guitar 2
e|---------------------------------------------------------------------------|
B|---------------------------------------------------------------------------|
G|9-7-6---9-7-6--------------------------------------------------------------|
D|------7-------7------------------------------------------------------------|
A|---------------------------------------------------------------------------|
E|---------------------------------------------------------------------------|

Repeat Chorus:  Guitar 2  (Different strumming)

Ending:  Guitar 2
e|---------------------------------------------------------------------------|
B|---------------------------------------------------------------------------|
G|---------------------------------------------------------------------------|
D|2-2-2-2-2x--4x-------------------------------------------------------------|
A|2-2-2-2-2x--4x-------------------------------------------------------------|
E|0-0-0-0-0x--2x-------------------------------------------------------------|
Comments