Rufio - She Cries Chords & Tabs

 

She Cries Chords & Tabs

Rufio Chords & Tabs

Version: 1 Type: Bass Tab 0 ratings
1 star 2 stars 3 stars 4 stars 5 stars
comments

She Cries Bass Tab

   
  she cries - rufio
-------------------------------------------------------------------------------

Tabbed By : jonas schlechtweg
e-mail: jonasschlechtweg@gmail.com

Tuning:drop d ---> D A D G
 keej this is a real good song by rufio. actualy all their songs rock :d. the notes
are al there somethimes you'll
just have to find the ritme :) but it's not so difficult cause the notes are all there
:) have fun. questions? mail me keej
intro

G|--9-9-9-9-9-9-9-9-9---2-2-2-2-2-2------6-6-6-6-6-6-6-6---2-2-2-2-2-2-2--|
D|--7-7-7-7-7-7-7-7-7---0-0-0-0-0-0---2--4-4-4-4-4-4-4-4---0-0-0-0-0-0-0--|x4
A|------------------------------------------------------------------------|
D|------------------------------------------------------------------------|

verse 
G|--------------------------------------------------------------------|
D|--7-7-7-7-7-7-7-7-7---0-0-0-0-0-0--4-4-4-4-4-4-4-4-4--0-0-0-0-0-0-0-| x 2
A|--------------------------------------------------------------------|
D|--------------------------------------------------------------------|

prechorus

G|--------------------------------------------------------------------|
D|--------------------------------------------------------------------|
A|----------------------------------5-5-5-5-5-5-5-5-5-5-5-5-5-5-5-5---|  x 2
D|-2-2-2-2-2-2-2-2--4-4-4-4-4-4-4-4-----------------------------------|

G|--------------------------------------------------------------------|
D|--------------------------------------------------------------------|
A|---------------------------5-5-5-5-5-----5-5-5-5-5------------------| x 2
D|--2-2-2-2-2---4-4-4-4-4---------------------------------------------|

chorus

G|------------------------------------------------------------------|
D|--7--7--7-7-7----0--0-0--0--0----4--4--4-4-4----2--2-2-2--2--2----|  x 2
A|------------------------------------------------------------------|
D|------------------------------------------------------------------|

verse 

G|---------------------------------------------------------------------|
D|--7-7-7-7-7-7-7-7-7---0-0-0-0-0-0--4-4-4-4-4-4-4-4-4--0-0-0-0-0-0-0--| 
A|---------------------------------------------------------------------|
D|---------------------------------------------------------------------|

prechorus

G|---------------------------------------------------------------------|
D|---------------------------------------------------------------------| x2
A|----------------------------------5-5-5-5-5-5-5-5-5-5-5-5-5-5-5-5----|  
D|-2-2-2-2-2-2-2-2--4-4-4-4-4-4-4-4------------------------------------|
[ Tab from: http://www.guitartabs.cc/tabs/r/rufio/she_cries_btab.html ]
G|-------------------------------------------------------------------|
D|-------------------------------------------------------------------|
A|---------------------------5-5-5-5-5-----5-5-5-5-5-----------------| x 1
D|--2-2-2-2-2---4-4-4-4-4--------------------------------------------|


G|----------------------------------7-7-7-7-7-7-7-7-7-7-7-7-7-7-7-7-|
D|------------------------------------------------------------------|
A|------------------------------------------------------------------| x1
D|-2-2-2-2-2---4-4-4-4-4--------------------------------------------|

chorus 2 . keej the notes are correct but you'll have to
				    find the ritme by yourself. it's almost correct :)

								2nd time end on
G|---9--9-9-~------------------------------------------------|---------|
D|---7--7-7-~---------------------4-4-4-4--2-2-2-2-----------|-------0-|  x2
A|-----------------------------------------------------------|---------|
D|-------------0-0-0--0---0-0-----------------------0-0-0-0--|---------|


bridge

G|---------------------------------------------------------------------|
D|---------------------------------------------------------------------|
A|------------------------------------------------------5-5-5-5-5-5-5-5|  x4
D|--4-4-4-4-4-4-4-4---2-2-2-2-2-2-2-2---7-7-7-7-7-7-7-7----------------|

prechorus

G|------------------------------------------------------------------|
D|------------------------------------------------------------------| x4  the ritme somehtimes variates 
A|----------------------------------5-5-5-5-5-5-5-5-5-5-5-5-5-5-5-5-|  
D|-2-2-2-2-2-2-2-2--4-4-4-4-4-4-4-4---------------------------------|


then chorus 2  x2


outro
G|---------------------------------------------------------------------|
D|---------------------------------------------------------------------|
A|---------------------------------------------------------------------| x 4
D|---4-4-4-4-4-4-4-4--2-2-2-2-2-2-2-2---0-0-0-0-0-0-0-0-0-0-0-0-0-0-0-0|

 play the chorus 2 again only a slitly different ritme but you can figure that out :) 
the notes are al there so :).

end

G|--------------------------------------------------------------------------|
D|--------------------------------------------------------------------------|
A|--------------------------------------------------------------------------|
D|---2-2-2-2-2---4----------------------------------------------------------|


have fun

questions---> jonasschlechtweg@gmail.com

| /  slide up
| \  slide down
| h  hammer-on
| p  pull-off
| ~  vibrato
| +  harmonic
| x  Mute note
===============================================================
Comments