Rufio - Selfishness Chords & Tabs

 

Selfishness Chords & Tabs

Rufio Chords & Tabs

Version: 1 Type: Tab 0 ratings
1 star 2 stars 3 stars 4 stars 5 stars
comments

Selfishness Tab

   
SELFISHNESS - Rufio

By:  Gary(TheAtaris07@aol.com)

~ - let ring out
PM... - palm mute
h - hammer on
p - pull off
4x - mute after strumming
/ \ - slide

GUITAR 1'S PARTS:
Intro:  Guitar 1  (4x)
e|---------------------------------------------------------------------------|
B|---------------------------------------------------------------------------|
G|11-10-11--6----------------------------------------------------------------|
D|-x--x--x--x----------------------------------------------------------------|
A|-9--8--9--4----------------------------------------------------------------|
E|---------------------------------------------------------------------------|

Intro Cont'd:  Guitar 1  (Comes in on 2nd time)  (3x)
e|---------------------------------------------------------------------------|
B|-----------2---------------------------------------------------------------|
G|------------------------6------------6-----6---4---------------------------|
D|---------------------------------------------------4-----------------------|
A|2-2--2-2-2---4-4--4-4-4---6-6--6-6-6---4-4---4---4-------------------------|
E|---------------------------------------------------------------------------|
PM...  .....   ...  .....   ...  .....   ...   .   .

Verse 1:  Guitar 1
e|---------------------------------------------------------------------------|
B|---------------------------------------------------------------------------|
G|3-3-3-3-3-3-3-3-3-3-3-3-4-4-4-4-4-4-4-4-4-4-4-4----------------------------|
D|3-3-3-3-3-3-3-3-3-3-3-3-4-4-4-4-4-4-4-4-4-4-4-4-4-4-4-4-4-4-4-4-4-4-4-4-4-4|
A|1-1-1-1-1-1-1-1-1-1-1-1-2-2-2-2-2-2-2-2-2-2-2-2-4-4-4-4-4-4-4-4-4-4-4-4-4-4|
E|------------------------------------------------2-2-2-2-2-2-2-2-2-2-2-2-1-1|

Verse 1 Cont'd:  Guitar 1
e|---------------------------------------------------------------------------|
B|---------------------------------------------------------------------------|
G|--------------------3-3-3-3-3-3-3-3-3-3-3-3-4-4-4-4-4-4-4-4-4-4-4-4--------|
D|4-4-4-4-4-4-4-4-4-4-3-3-3-3-3-3-3-3-3-3-3-3-4-4-4-4-4-4-4-4-4-4-4-4-4-4-4-4|
A|4-4-4-4-4-4-4-4-4-4-1-1-1-1-1-1-1-1-1-1-1-1-2-2-2-2-2-2-2-2-2-2-2-2-4-4-4-4|
E|1-1-1-1-1-1-1-1-1-1-------------------------------------------------2-2-2-2|

Verse 1 Cont'd:  Guitar 1
e|---------------------------------------------------------------------------|
B|---------------------------------------------------------------------------|
G|----------------4-4-4-4-4-4-4-4-4-4-4-4------------------------------------|
D|4-4-4-4-4-4-4-4-4-4-4-4-4-4-4-4-4-4-4-4------------------------------------|
A|4-4-4-4-4-4-4-4-2-2-2-2-2-2-2-2-2-2-2-2------------------------------------|
E|2-2-1-1-1-1-1-1------------------------------------------------------------|

Chorus:  Guitar 1  "Your selfishness..."  (4x)
e|---------------------------------------------------------------------------|
B|---------------------------------------------------------------------------|
G|4-4-4-4-4---------------------6-6-6-6-6------------------------------------|
D|4-4-4-4-4-3-3-3-3-3-6-6-6-6-6-6-6-6-6-6------------------------------------|
A|2-2-2-2-2-4-4-4-4-4-8-8-8-8-8-4-4-4-4-4------------------------------------|
E|---------------------------------------------------------------------------|

Next Thing:  Guitar 1  (2x)
e|---------------------------------------------------------------------------|
B|---------------------------------------------------------------------------|
G|------------------------3-3-3-3-3-3-3-3-3-3-3-3-4-4-4-4-4-4-4-4-4-4-4-4----|
D|4-4-4-4-4-4-4-4-4-4-4-4-3-3-3-3-3-3-3-3-3-3-3-3-4-4-4-4-4-4-4-4-4-4-4-4----|
A|4-4-4-4-4-4-4-4-4-4-4-4-1-1-1-1-1-1-1-1-1-1-1-1-2-2-2-2-2-2-2-2-2-2-2-2----|
E|2-2-2-2-2-2-1-1-1-1-1-1----------------------------------------------------|
                                                          .......

Next Thing Cont'd:  Guitar 1
e|---------------------------------------------------------------------------|
B|---------------------------------------------------------------------------|
G|6-6-6-6-6-6-6-6-6-6-6-6----------------------------------------------------|
D|6-6-6-6-6-6-6-6-6-6-6-6----------------------------------------------------|
A|4-4-4-4-4-4-4-4-4-4-4-4----------------------------------------------------|
E|---------------------------------------------------------------------------|

Repeat Intro

2nd Verse:  Repeat Intro 2x
            Repeat Verse 1

Repeat Chorus

Repeat Next Thing
[ Tab from: http://www.guitartabs.cc/tabs/r/rufio/selfishness_tab.html ]
Bridge:  Guitar 1  (4x)
e|---------------------------------------------------------------------------|
B|---------------------------------------------------------------------------|
G|4-4x--4-4-4x--4-8-8x--8--6-6-6x--------------------------------------------|
D|4-4x--4-4-4x--4-8-8x--8--6-6-6x--------------------------------------------|
A|2-2x--2-2-2x--2-6-6x--6--4-4-4x--------------------------------------------|
E|---------------------------------------------------------------------------|

Bridge Cont'd:  Guitar 1
e|---------------------------------------------------------------------------|
B|---------------------------------------------------------------------------|
G|4~---3h4p3-4~---3h4p3-6~---3h4p3-4~---3h4p3-6~-----------------------------|
D|4~---------4~--------------------4~----------------------------------------|
A|2~---------2~--------------------2~----------------------------------------|
E|---------------------------------------------------------------------------|

Repeat 1st part of Intro:  (4x)

Repeat 1st part of Bridge:  (4x)

End on:  Guitar 1
e|---------|
B|---------|
G|--11~----|
D|---x-----|
A|---9~----|
E|---------|

GUITAR 2'S PARTS:
Intro:  Guitar 2  (4x)
e|---------------------------------------------------------------------------|
B|---------------------------------------------------------------------------|
G|11-13-15-18----------------------------------------------------------------|
D|-x--x--x--x----------------------------------------------------------------|
A|-9-11-13-16----------------------------------------------------------------|
E|---------------------------------------------------------------------------|

Intro Cont'd:  Guitar 2  (4x)
e|---------------------------------------------------------------------------|
B|---------------------------------------------------------------------------|
G|---------------------------------------------------------------------------|
D|-----------4------------3------------4------------3------------------------|
A|2-2--2-2-2---4-4--4-4-4---6-6--6-6-6---4-4--4-4-4--------------------------|
E|---------------------------------------------------------------------------|
  ...  .....   ...  .....   ...  .....   ...  .....

Verse 1:  Guitar 2  (2x)  (Strumming not exactly correct)
e|---------------------------------------------------------------------------|
B|---------------------------------------------------------------------------|
G|11-11-11-11-11-11-11-11/13-13-13-11-11-11-11-11-11-11-11-11/13-13-13-------|
D|-x--x--x--x--x--x--x--x--x--x--x--x--x--x--x--x--x--x--x--x--x--x--x-------|
A|-9--9--9--9--9--9--9--9/11-11-11--9--9--9--9--9--9--9--9--9/11-11-11-------|
E|---------------------------------------------------------------------------|

Verse 1 Cont'd:  Guitar 2
e|---------------------------------------------------------------------------|
B|---------------------------------------------------------------------------|
G|11-11-11-13-13-13-15-15-15-15-15-15-15-15-15-15-15-15-13-13-13-11-11-11-10-|
D|-x--x--x--x--x--x--x--x--x--x--x--x--x--x--x--x--x--x--x--x--x--x--x--x--x-|
A|-9--9--9-11-11-11-13-13-13-13-13-13-13-13-13-13-13-13-11-11-11--9--9--9--8-|
E|---------------------------------------------------------------------------|

Chorus:  Guitar 2  "Your selfishness..."  (Repeat a ton)
e|--------------|
B|--------------|
G|------6-------|
D|3-3h4---4-----|
A|--------------|
E|--------------|

Next Part:  Guitar 2  (Sounds like Chorus some more up until this part...) (2x)
e|----------------------------------------------4----------------------------|
B|--------7-------------7---------7------------------------------------------|
G|---------------------------------------------------------------------------|
D|4-4-4-4---4-4-4-4-4-4---4-4-4-4---4-4-4-4-4-4------------------------------|
A|---------------------------------------------------------------------------|
E|---------------------------------------------------------------------------|
  .......   ...........   .......   ...........

Repeat Intro

2nd Verse:  Repeat Intro 2x

Repeat Verse 1

Repeat Chorus

Repeat Next Part

Bridge:  Guitar 2  (4x)
e|---------------------------------------------------------------------------|
B|---------------------------------------------------------------------------|
G|11-11x--11-11-11x--11-11-11x--11-10-10x--10--------------------------------|
D|-x--x----x--x--x----x--x--x----x--x--x----x--------------------------------|
A|-9--9x---9--9--9x---9--9--9x---9--8--8x---8--------------------------------|
E|---------------------------------------------------------------------------|

Bridge Cont'd:  Guitar 2
e|---------------------------------------------------------------------------|
B|---------------------------------------------------------------------------|
G|11~---11/13-11~---11/13-11~---11/13-11~---11/13--18~-----------------------|
D|-x-----x--x--x-----x--x--x-----x--x--x-----x--x---x------------------------|
A|-9~----9/11--9~----9/11--9~----9/11--9~----9/11--16~-----------------------|
E|---------------------------------------------------------------------------|

Repeat 1st Part of Intro

Repeat 1st Part of Bridge

End on:  Guitar 2
e|------------|
B|------------|
G|--11~-------|
D|---x--------|
A|---9~-------|
E|------------|

This song is all easy.  E-mail me questions and crap.
Comments