Rufio - Save The World Chords & Tabs

 

Save The World Chords & Tabs

Rufio Chords & Tabs

Version: 2 Type: Tab 0 ratings
1 star 2 stars 3 stars 4 stars 5 stars
comments

Save The World Tab

Guitar 1
Intro: (x2)
e|-----------------------------------------------------------------------------|
B|-----------------------------------------------------------------------------|
G|-6-6666-6-6666-6-6666-6------------------99-98-------------------------------|
D|-6-6666-6-6666-6-6666-6-9--7-7-7--6h7h9--xx-xx-9-----------------------------|
A|-4-4444-4-4444-4-4444-4-9--7-7-7---------77-76-x-----------------------------|
E|------------------------7--5-5-5---------------7-----------------------------|
     ....   ....   ....

e|---------------------------------------------------------------------------|
B|---------------------------------------------------------------------------|
G|-6-6666-6-6666-6-6666-6-8-99999999-13131313-16161616-----------------------|
D|-6-6666-6-6666-6-6666-6-x-xxxxxxxx--x-x-x-x--x-x-x-x-----------------------|
A|-4-4444-4-4444-4-4444-4-6-77777777-11111111-14141414-----------------------|
E|---------------------------------------------------------------------------|
     ....   ....   ....

Intro part 2: (x2)
e|---------------------------------------------------------------------------|
B|---------------------------------------------------------------------------|
G|-66-6----66-6----------66-6------------------------------------------------|
D|-66-67-9-66-6----------66-67-7-6666-7777-----------------------------------|
A|-44-47-9-44-4--7p6-----44-47-7-6666-7777-----------------------------------|
E|-----5-7-----------7-------5-5-4444-5555-----------------------------------|

Verse: (x2) "you pull me by the arms....."
e|---------4---2------4--2--0-------4-4p2-0---4-4p2-0---4-4p2-0---4-4p2-0----|
B|--5~~~~~----2---2~~~--2--2-------2-2---4---2-2---4---2-2---4---2-2---4-----|
G|--6~~~~~-------------------------------------------------------------------|
D|--6~~~~~-------------------------------------------------------------------|
A|--4~~~~~-------------------------fast--------------------------------------|
E|---------------------------------------------------------------------------|

Pre-Chorus: (x1) "Believe"
e|--------------------|
B|--------------------|
G|-2~~~~~~~~4~~~~~~~~~|
D|-2~~~~~~~~4~~~~~~~~~|
A|-0~~~~~~~~2~~~~~~~~~|
E|--------------------|

Chorus: (X8) listen for timing
e|--4p0-2-0---4-0-2-0-|
B|--------------------|
G|--------------------|
D|--------------------|
A|--------------------|
E|--------------------|

Short little Riff
e|----------------|
B|----------------|
G|----------------|
D|----------------|
A|----------4p0-2-|
E|--2p0-4p0-------|

Intro: (x1)

Part before Verse: (x1)
e|---------------------------------------------------------------------------|
B|---------------------------------------------------------------------------|
G|--66666666-9999999999999999-88x9x8-66666666-9999999999999999-8888-9999-----|
D|--xxxxxxxx-xxxxxxxxxxxxxxxx-xxxxxx-xxxxxxxx-xxxxxxxxxxxxxxxx-xxxx-xxxx-----|
A|--44444444-7777777777777777-66x7x6-44444444-7777777777777777-6666-7777-----|
E|---------------------------------------------------------------------------|

  "Well to Live is to Learn"
e|------------4--0-----------------------------------------------------------|
B|------------------2~~~~~~~~~~////////--------------------------------------|
G|-6~~~~~~~~-------------------slide-up--------------------------------------|
D|-x~~~~~~~~-----------------------------------------------------------------|
A|-4~~~~~~~~-----------------------------------------------------------------|
E|---------------------------------------------------------------------------|

Verse
Chorus
Short Little Riff

Solo:
e|------------0~~~~~~~0~~~~~~~~5-4~~~~~~~~~-5-4-0~~~5-4-0~~~~----------------|
B|-2~~~~2///4----------vibrato----Vibrato------------------------------------|
G|---------------------------------------------------------------------------|
D|---------------------------------------------------------------------------|
A|---------------------------------------------------------------------------|
E|---------------------------------------------------------------------------|

e|--4/7-5-4~~~~~~-4/7-5-4-5-4-0---5-4-0~~~~~-5-4~~~~~--4/7-5-4-5-4-0---------|
B|---------------------------------------------------------------------------|
G|---------------------------------------------------------------------------|
D|---------------------------------------------------------------------------|
A|---------------------------------------------------------------------------|
E|---------------------------------------------------------------------------|

e|--4/7-5-4--5p4p2-5p4p2-0---5-4-0~~~~~~-5-4~~~--4/7-5-4~~-4/7-5-4-5-4-0-5~~~|
B|---------------------------------------------------------------------------|
G|---------------------------------------------------------------------------|
D|---------------------------------------------------------------------------|
A|---------------------------------------------------------------------------|
E|---------------------------------------------------------------------------|

Short little gtr riff
Short little Bass Riff
Chorus

Outro: (x8) listen for timing
e|--4p0-2-0---4-0-2-0-|
B|--------------------|
G|--------------------|
D|--------------------|
A|--------------------|
E|--------------------|

End On:
e|--0~~~~~~~~~~-|
B|---lots-of----|
G|----Vibrato---|
D|--------------|
A|--------------|
E|--------------|

Guitar 2
Intro Part 1
e|---------------------------------------------------------------------------|
B|---------------------------------------------------------------------------|
G|-9-----9-7-----99-9-8-8----------------------------------------------------|
D|-x-----x-x-----xx-x-x-x----------------------------------------------------|
A|-7-----7-6-----77-7-6-7----------------------------------------------------|
E|---------------------------------------------------------------------------|
[ Tab from: http://www.guitartabs.cc/tabs/r/rufio/save_the_world_tab_ver_2.html ]
Intro part 2 (x3)
e|---------------------------------------------------------------------------|
B|---------------------------------------------------------------------------|
G|-----------------------------------------------1313131313141416-161616-1413|
D|--14-11-14-11-14-11-14-11-14-11-14-11-14--13----x-x-x-x-x-x-x-x--x-x-x--x-x|
A|-----------------------------------------------1111111111121214-141414-1211|
E|---------------------------------------------------------------------------|
     .  .  .  .  .  .  .  .  .  .  .  .

Intro part 3: (x2)
e|----------------------0----------------------------------------------------|
B|-----------------10p9------------------------------------------------------|
G|---9-98-9----9-9-----------9-98-9--9999-8888-------------------------------|
D|---x-xx-x----x-x-----------x-xx-x--xxxx-xxxx-------------------------------|
A|---7-76-7----7-7-----------7-76-7--7777-6666-------------------------------|
E|-0---------0-------------0-------------------------------------------------|

Verse: (x2) "You pull me by the arms....."
e|---------------------------------------------------------------------------|
B|---------------------------------------------------------------------------|
G|---------------------------------------------------------------------------|
D|-7777777777777777-9999999999999999-----------------------------------------|
A|-7777777777777777-9999999999999999-----------------------------------------|
E|-5555555555555555-7777777777777777-----------------------------------------|

e|---------------------------------------------------------------------------|
B|---------------------------------------------------------------------------|
G|-66666666------------------------------------------------------------------|
D|-66666666-99999999-7777777777777666----------------------------------------|
A|-44444444-99999999-7777777777777666----------------------------------------|
E|----------77777777-5555555555555444----------------------------------------|

Pre-Chorus: (x1) "Believe"
e|------------------------|
B|------------------------|
G|------------------------|
D|-7~~~~~~~~~~9~~~~~~~~~~~|
A|-7~~~~~~~~~~9~~~~~~~~~~~|
E|-5~~~~~~~~~~7~~~~~~~~~~~|

Chorus: (x2) "let's save the world"
e|---------------------------------------------------------------------------|
B|---------------------------------------------------------------------------|
G|-9-9-999-9-9999----------------6-6-666-6-6666------------------------------|
D|-9-9-999-9-9999-7-7-777-7-7777-6-6-666-6-6666-7-7-777-9-9-999--------------|
A|-7-7-777-7-7777-7-7-777-7-7777-4-4-444-4-4444-7-7-777-9-9-999--------------|
E|----------------5-5-555-5-5555----------------5-5-555-7-7-777--------------|
       ...            ...            ...

Short little fill (gtr 1)

Intro part 1 (modified)
e|---------------------------------------------------------------------------|
B|---------------------------------------------------------------------------|
G|--6--6--6--6-8---99-98-9---------------------------------------------------|
D|--x--x--x--x-x---xx-xx-x---------------------------------------------------|
A|--4--4--4--4-6---77-76-7---------------------------------------------------|
E|---------------------------------------------------------------------------|

Intro part 2: (x1)

Part before Verse: (x1) "so spread the word...."
e|---------------------------------------------------------------------------|
B|---------------------------------------------------------------------------|
G|-66666666----------------------------66666666-99999999---------------------|
D|-66666666-77777777-66666666-99999999-66666666-99999999-77777777-99999999---|
A|-44444444-77777777-66666666-99999999-44444444-77777777-77777777-99999999---|
E|----------55555555-44444444-77777777-------------------55555555-77777777---|

 "well to live is to learn....."
e|----------------------------------------|
B|----------------------------------------|
G|--6~~~~~~~~~~~~~~~~~~6~~~~~~~~~~~~~~~~~~|
D|--6~~~~~~~~~~~~~~~~~~6~~~~~~~~~~~~~~~~~~|
A|--4~~~~~~~~~~~~~~~~~~4~~~~~~~~~~~~~~~~~~|
E|----------------------------------------|

Verse (x2)
Pre-Chorus
Chorus
Short guitar fill (gtr 1)

Interlude: (x4)
e|---------------------------------------------------------------------------|
B|---------------------------------------------------------------------------|
G|-6~~~~~~~~~~6-------------4~~~~~~~~~~~2~~~~4~~~~~~-------------------------|
D|-6~~~~~~~~~~6-2~~~~~~~~~2-4~~~~~~~~~~~2~~~~4~~~~~~-------------------------|
A|-4~~~~~~~~~~4-2~~~~~~~~~2-2~~~~~~~~~~~0~~~~2~~~~~~-------------------------|
E|--------------0~~~~~~~~~0--------------------------------------------------|

Part before the pause
e|----------------|
B|----------------|
G|-2~~~~~~~~~~~~~2|
D|-2~~~~~~~~~~~~~2|
A|-0~~~~~~~~~~~~~0|
E|----------------|

Short little gtr riff (gtr 1)
Short little Bass riff
Chorus

Outro:
e|---------------------------------------------------------------------------|
B|---------------------------------------------------------------------------|
G|--9999/11111111/13131313/14141414------------------------------------------|
D|--xxxx/-x-x-x-x/-x-x-x-x/-x-x-x-x---(x2)-----------------------------------|
A|--7777/-9-9-9-9/11111111/12121212------------------------------------------|
E|---------------------------------------------------------------------------|

e|---------------------------------------------------------------------------|
B|---------------------------------------------------------------------------|
G|--9999/11111111/13131313/1414141414/16161616161616161616141414131313-------|
D|--xxxx/-x-x-x-x/-x-x-x-x/-x-x-x-x-x/-x-x-x-x-x-x-x-x-x-x-x-x-x-x-x-x---(x1)|
A|--7777/-9-9-9-9/11111111/1212121212/14141414141414141414121212111111-------|
E|---------------------------------------------------------------------------|

e|---------------------------------------------------------------------------|
B|---------------------------------------------------------------------------|
G|--16/14/13--16/14/13/9--16/14/13--16/14/13-/-11--13-/-11-/-9---------------|
D|---x/-x/-x---x/-x/-x/x---x/-x/-x---x/-x/-x-/--x---x-/--x-/-x---------------|
A|--14/12/11--14/12/11/7--14/12/11--14/12/11-/--9--11-/--9-/-7---------------|
E|---------------------------------------------------------------------------|

any questions or anything E-mail me at Cruzinespy7@aol.com
Comments