Rufio - Save The World Chords & Tabs

 

Save The World Chords & Tabs

Rufio Chords & Tabs

Version: 1 Type: Bass Tab 0 ratings
1 star 2 stars 3 stars 4 stars 5 stars
comments

Save The World Bass Tab

   
----------------------------------------------------------------
			     Save the world - Rufio
----------------------------------------------------------------

Tabbed By : Liam
e-mail: bonzibro_15@hotmail.com

Tuning: It is normal tuning. G, D, A, E

| /  slide up
| \  slide down
| h  hammer-on
| p  pull-off
| ~  vibrato
| +  harmonic
| x  Mute note
| >  Strum a little
| >> Strum a lot

Intro

G|----------------------------------------------------||
D|---------2-2-2-1----------------------------222-1---||
A|-4x-4-2x---------2-4444444444444-2-00000000-------2-||
E|----------------------------------------------------||

G|-------------------4---------------------||
D|----------1\2-h4----------------222------||
A|-44444444--------------00000000-----0-2--||
E|-----------------------------------------||

G|----------------------------4----6--||
D|---------------1-2222222-2h---2-----||
A|-4444444444444----------------------||
E|------------------------------------||

G|------------------------------------||
D|------------221---------------------||
A|-4-0-2-4-4-----2--4-00-2------------||
E|--------------------------000-444---||

G|-----------------4------------------||
D|-------------221--------------------||
A|--4-0-2-4-4-------4-00-2------------||
E|--------------------------000-444---||

Verse

G|--------------------------------------------------||
D|--------------------------------------------------||
A|-0>>-2>>-4>-2>-0>>---0>>-2>>-4>-2>-0>>---0>>--2>>-||
E|-------------------4-------------------4----------||

Chorus
[ Tab from: http://www.guitartabs.cc/tabs/r/rufio/save_the_world_btab.html ]
G|--------------------||
D|-2>>----------------||     x2
A|-----0>>-4>>-0>--2>-||
E|--------------------||

Pre Bridge

G|------------------------------------||
D|-------221------------------222-1---||
A|-44-00-----2--4*-4*-4*-4-2*-------2-||
E|------------------------------------||

G|------------------------------------||
D|--------------------------222-1-----||
A|-4444444444444-2-00000000-------2---||
E|------------------------------------||

Bridge

G|-----------------------------||
D|-------------------2>--------||
A|--4>--0>----2>--4>----0>--2>-||
E|---------4>------------------||

G|-------------------------4-----4---------||
D|----------------------2----22------------||
A|-4>--0>----2222----4>-------------0>--2>-||
E|--------4>-------------------------------||

Play Verse
Play Chorus

then this

G|------------------------------||
D|---------222-1----------------||
A|----------------2-------------||
E|------------------------------||

Slow Bridge

G|---------------------------||
D|---------------------------||       x2
A|-4>>----2>>--0>--2>--------||
E|----0>>--------------------||

G|---------------------------||
D|---------------------------||
A|-4>>---77-77-7-2>>--0>--2>-||
E|----00---------------------||

G|--------------------------||
D|--------------------------||
A|-4>>----2>>--0>--2>--0~---||
E|----0>>-------------------||

Then this (very fast)

G|-----11----4-2-1-----||
D|--------22-----------||
A|---------------------||
E|---------------------||

Chorus x2

End on  

G|---------||
D|---2-----||
A|---------||
E|---------||
Comments