Rufio - Road To Recovery Chords & Tabs

 

Road To Recovery Chords & Tabs

Rufio Chords & Tabs

Version: 1 Type: Bass Tab 0 ratings
1 star 2 stars 3 stars 4 stars 5 stars
comments

Road To Recovery Bass Tab

   
Tuning:E A D G (standard)
*= let ring
listen carefully during the intro it is easy to mix up the bass with the guitars.

intro
G|-9-----9-----9-10------10----10-9-----9---9----10------10------------------|
D|--10-10-10-10----10-10--10-10---10-10---10-10---10-10--10-10---------------|
A|---------------------------------------------------------------------------|
E|---------------------------------------------------------------------------|

G|-22222-0000--2222-0000-----------------------------------------------------|
D|---------------------------------------------------------------------------|
A|---------------------------------------------------------------------------|
E|---------------------------------------------------------------------------|

G|-9-----9-----9-10------10----10-9-----9---9----10------10-------------------|
D|--10-10-10-10----10-10--10-10---10-10---10-10---10-10--10-10----------------|
A|----------------------------------------------------------------------------|
E|----------------------------------------------------------------------------|

G|-22222-0000--2222-0-2-3-5-3-2-0--------------------------------------------------|
D|---------------------------------------------------------------------------------|
A|---------------------------------------------------------------------------------|
E|---------------------------------------------------------------------------------|
[ Tab from: http://www.guitartabs.cc/tabs/r/rufio/road_to_recovery_btab.html ]
G|---5-4-5-7-5-5-4-5-7-5--22222-00000-22222-00000----------------------------|
D|---------------------------------------------------------------------------|(X2)
A|---------------------------------------------------------------------------|
E|---------------------------------------------------------------------------|
verse:
G|---------------------------------------------------------------------------|
D|---------------------------------------------------------------------------|
A|------------------000000--------333333-------------------------------------|(X3)
E|-111111--3333333--------1111111--------333333------------------------------|
                     he never thought.....
chorus:
G|---------------------------------------------------------------------------|
D|-0000000-3333333-----------------------------------------------------------|(X2)
A|----------------3333333----------------------------------------------------|
E|--------------------------3333333------------------------------------------|
this road to recovery....
interlude:
G|-----5-----------4------5-----4------------------------------------------------|
D|--3-----3------5---5--7---7--5--5----------------------------------------------|
A|-------------------------------------------------------------------------------|
E|-------------------------------------------------------------------------------|
back to verse:
G|---------------------------------------------------------------------------|
D|---------------------------------------------------------------------------|
A|------------------000000--------333333-------------------------------------|(X3)
E|-111111--3333333--------1111111--------333333------------------------------|
                   well he lost control....
chorus:
G|---------------------------------------------------------------------------|
D|-0000000-3333333-----------------------------------------------------------|(X2)
A|----------------3333333----------------------------------------------------|
E|--------------------------3333333------------------------------------------|
this road to recovery....
interlude:
G|-----5-----------4------5-----4------------------------------------------------|
D|--3-----3------5---5--7---7--5--5----------------------------------------------|
A|-------------------------------------------------------------------------------|
E|-------------------------------------------------------------------------------|
solo:
(fast piking)
G|----------------77-557-9--9-7--12-10-9-9-9-7-5-4---------------------------|
D|-333333-55555--7--------9--------------------------------------------------|
A|---------------------------------------------------------------------------|
E|---------------------------------------------------------------------------|

G|----54h5---54h5--54h5---54h5----54h5-----------------------------------------------|
D|--5-----5-----7----3------3----5---------------------------------------------------|
A|-----------------------------------------------------------------------------------|
E|-----------------------------------------------------------------------------------|
then:
G|---------------------------------------------------------------------------|
D|---------------------------------------------------------------------------|
A|---------------------------------------------------------------------------|(x 3)
E|-11111--333333--555555---333333-11111-333333-555555------------------------|
well loves a bitch...relationships end

G|---------------------------------------------------------------------------|
D|---------------------------------------------------------------------------|
A|---------2222--0000------------222-000-------------------------------------|
E|-3333---------------1111--3333---------------------------------------------|
how do i let go of a love.....

outro:
G|---------------------------------------------------------------------------|
D|---------------------------------------------------------------------------|
A|---------------------------------------------------------------------------|
E|5555-333-1111-3333-5555-3333-1111-3333-5*-3*-1*----------------------------|
youre still all i see...
Comments