Rufio - Pirate Chords & Tabs

 

Pirate Chords & Tabs

Rufio Chords & Tabs

Version: 3 Type: Tab 0 ratings
1 star 2 stars 3 stars 4 stars 5 stars
comments

Pirate Tab

Title: Pirate
Artist: Rufio
Album: MCMLXXXV

Instrument: 6 String Guitar

Tabbed by: James (thecheat787@yahoo.com)


Notes:
i can't take any credit for this tab.
i got it from a guitar pro tab i just 
thought i would tab it out for people 
who don't have guitar pro. it is fairly 
correct there may be some mistakes.
this tab is only for guitar 1

*= hold the note longer
x= dead notes
.= Palm Mute
REST= half note rest
rest= quarter note rest



E |---------------------------------------------------------------------||
B |---------------------------------------------------------------------||
G |-----5-5-----6-6-----7-7---------------5-5-----6-6-----7-7-----------||
D |-------------4-4-----5-5-----7-4-0-------------4-4-----5-5-----7-4-0-||
A |-2-2-7-7-0-0-------------0-0-------2-2-7-7-0-0-------------0-0-------||
E |-----------------3-3-------------------------------3-3---------------||


E|----------------------------------------------------------------------------------||
B|----------------------------------------------------------------------------------||
G|-------7---6--------------------------------7---6---------------------------------||
D|-9-9-9---9-------9-9-9-7-9-11-9-7-9---9-9-9---9-------9-9-9-7-9*-----11*-----12*--||
A|-------------7-7---------------------------------7-7------------------------------||
E|----------------------------------------------------------------------------------||



E |----------------------------------------------------------------||
B |----------------------------------------------------------------||
G |----------------------------------------------------------------||
D |-12-12-12-12-12-12-12-11-11-11-11-11-11-------------------------||
A |----------------------------------------------------------------||
E |----------------------------------------------------------------||

Repeat Twice
E|-------------------------------------------------------------------------------||
B|----------------------7*--------------------------------7--7-7-7-7-------------||
G|----------------------7*--------------------------------7--7-7-7-7-------------||
D|----------------------5*-5*-7*-4*-----------------------5--5-5-5-5-7--7-7-7-7--||
A|-2--0-2--0-2--0-2--0-----5*-7*-4*--2--0-2--0-2--0-2--0-------------7--7-7-7-7--||
E|-------------------------3*-5*-2*----------------------------------5--5-5-5-5--||



Repeat Twice

E |----------------------------------------------------------------||
B |----------------------------------------------------------------||
G |----------------------------------------------------------------||
D |-4-4-------4-4-------4-4-------4-4------------------------------||
A |-5-5-------5-5-------5-5-------5-5-------2--0-0-0-0-5-4-0-0-0---||
E |-3-3-x-x-x-3-3-x-x-x-3-3-x-x-x-3-3-x-x-x------------------------||

                                                 . . .     . . .


E |---------------------------------------------||
B |---------------------------------------------||
G |---------------------------------------------||
D |-4-4-------4-4-------7--7-x-x-x-7-7-7-7-7-7--||
A |-5-5-------5-5-------7--7-x-x-x-7-7-7-7-7-7--||
E |-3-3-x-x-x-3-3-x-x-x-5--5-x-x-x-5-5-5-5-5-5--||



E |---------------------------------------------------------------------||
B |---------------------------------------------------------------------||
G |-----5-5-----6-6-----7-7---------------5-5-----6-6-----7-7-----------||
D |-------------4-4-----5-5-----7-4-0-------------4-4-----5-5-----7-4-0-||
A |-2-2-7-7-0-0-------------0-0-------2-2-7-7-0-0-------------0-0-------||
E |-----------------3-3-------------------------------3-3---------------||


E |------------------------------------------------------------------------||
B |------------------------------------------------------------------------||
G |-------7---6--------------------------------7---6-----------------------||
D |-9-9-9---9-------9-9-9-7-9-11-9-7-9---9-9-9---9-------9-9-9-7-9-----11*-||
A |-------------7-7---------------------------------7-7--------------------||
E |------------------------------------------------------------------------||




E|--------------------------------------------------------------------------------------------||
B|--------------------------------------------------------------------------------------------||
G|-4------4-4-4--4----------4------4-4-4---------4------4-4-4--4----------4------4-4-4--7*-7*-||
D|-4-REST-4-4-4--4-rest-5*--4-REST-4-4-4--7*-7*--4-REST-4-4-4--4-rest-5*--4-REST-4-4-4--7*-7*-||
A|-2------2-2-2--2------5*--2------2-2-2--7*-7*--2------2-2-2--2------5*--2------2-2-2--5*-5*-||
E|----------------------3*----------------5*-5*-----------------------3*----------------------||


Repeat Twice
E|-------------------------------------------------------------------------------||
B|----------------------7*--------------------------------7--7-7-7-7-------------||
G|----------------------7*--------------------------------7--7-7-7-7-------------||
D|----------------------5*-5*-7*-4*-----------------------5--5-5-5-5-7--7-7-7-7--||
A|-2--0-2--0-2--0-2--0-----5*-7*-4*--2--0-2--0-2--0-2--0-------------7--7-7-7-7--||
E|-------------------------3*-5*-2*----------------------------------5--5-5-5-5--||


[ Tab from: http://www.guitartabs.cc/tabs/r/rufio/pirate_tab_ver_3.html ]
Repeat Twice 
E |----------------------------------------------------------------||
B |----------------------------------------------------------------||
G |----------------------------------------------------------------||
D |-4-4-------4-4-------4-4-------4-4------------------------------||
A |-5-5-------5-5-------5-5-------5-5-------2--0-0-0-0-5-4-0-0-0---||
E |-3-3-x-x-x-3-3-x-x-x-3-3-x-x-x-3-3-x-x-x------------------------||
                                                 . . .     . . .


E |---------------------------------------------||
B |---------------------------------------------||
G |---------------------------------------------||
D |-4-4-------4-4-------7--7-x-x-x-7-7-7-7-7-7--||
A |-5-5-------5-5-------7--7-x-x-x-7-7-7-7-7-7--||
E |-3-3-x-x-x-3-3-x-x-x-5--5-x-x-x-5-5-5-5-5-5--||


E |---------------------------------------------------------------------||
B |---------------------------------------------------------------------||
G |-----5-5-----6-6-----7-7---------------5-5-----6-6-----7-7-----------||
D |-------------4-4-----5-5-----7-4-0-------------4-4-----5-5-----7-4-0-||
A |-2-2-7-7-0-0-------------0-0-------2-2-7-7-0-0-------------0-0-------||
E |-----------------3-3-------------------------------3-3---------------||


E |------------------------------------------------------------------------||
B |------------------------------------------------------------------------||
G |-------7---6--------------------------------7---6-----------------------||
D |-9-9-9---9-------9-9-9-7-9-11-9-7-9---9-9-9---9-------9-9-9-7-9-----11*-||
A |-------------7-7---------------------------------7-7--------------------||
E |------------------------------------------------------------------------||




E |------------------------||
B |------------------------||
G |-4---4------------------||
D |-4---4---7---7---5---5--||
A |-2---2---7---7---5---5--||
E |---------5---5---3---3--||

Just Bass and Drums




E |-------------------------------------------------------------------||
B |-------------------------------------------------------------------||
G |-------------------------------------------------------------------||
D |-----0---------------0----------------0---------------0------------||
A |-2-2---0-0-5-4-0-------0-0-5-4-0--2-2---0-0-5-4-0-------0-0-5-4-0--||
E |-----------------3-3------------------------------3-3--------------||



E|---------------------------------------------------------------------------------------------------||
B|-------------------------------------------------------------------------------------------------||
G|-4--4-----------------------------4--4-----------------------------4--4-------------------------||
D|-4--4----------------0------------4--4----------------0------------4--4-------------5--5----------||
A|-2--2--0-0-5-4-0-------0-0-5-4-0--2--2--0-0-5-4-0-------0-0-5-4-0--2--2--0-0-5-4-0--5--5--0-0-5-4-0----||
E|-----------------3-3------------------------------3-3-------------------------------3--3----------||




E |-----------------------------||
B |-----------------------------||
G |-4--4------------------------||
D |-4--4-------------5--5--7--7-||
A |-2--2--0-0-5-4-0--5--5--7--7-||
E |------------------3--3--5--5-||



E |----------------------------------------------------------------||
B |----------------------------------------------------------------||
G |----------------------------------------------------------------||
D |-4-4-------4-4-------4-4-------4-4------------------------------||
A |-5-5-------5-5-------5-5-------5-5-------2--0-0-0-0-5-4-0-0-0---||
E |-3-3-x-x-x-3-3-x-x-x-3-3-x-x-x-3-3-x-x-x------------------------||
                                                 . . .     . . .




E |---------------------------------------------||
B |---------------------------------------------||
G |---------------------------------------------||
D |-4-4-------4-4-------7--7-x-x-x-7-7-7-7-7-7--||
A |-5-5-------5-5-------7--7-x-x-x-7-7-7-7-7-7--||
E |-3-3-x-x-x-3-3-x-x-x-5--5-x-x-x-5-5-5-5-5-5--||


E |---------------------------------------------------------------------||
B |---------------------------------------------------------------------||
G |-----5-5-----6-6-----7-7---------------5-5-----6-6-----7-7-----------||
D |-------------4-4-----5-5-----7-4-0-------------4-4-----5-5-----7-4-0-||
A |-2-2-7-7-0-0-------------0-0-------2-2-7-7-0-0-------------0-0-------||
E |-----------------3-3-------------------------------3-3---------------||



Repeat Three times
E |------------------------------------------------------------------------||
B |------------------------------------------------------------------------||
G |-------7---6--------------------------------7---6-----------------------||
D |-9-9-9---9-------9-9-9-7-9-11-9-7-9---9-9-9---9-------9-9-9-7-9-----11*-||
A |-------------7-7---------------------------------7-7--------------------||
E |------------------------------------------------------------------------||



E |------------------------------||
B |------------------------------||
G |--7--7--7--7--7-6-7-9-7-9-11*-||
D |------------------------------||
A |--5--5--5--5------------------||
E |------------------------------||


thats it. if you like it i will gladly tab out the guitar 2 part.
Comments