Rufio - Pirate Chords & Tabs

 

Pirate Chords & Tabs

Rufio Chords & Tabs

Version: 2 Type: Tab 0 ratings
1 star 2 stars 3 stars 4 stars 5 stars
comments

Pirate Tab

--------------------------------------------------------|
-------7------------------------------------------------|
-6h7-7--9-6-7-7p6h7-9-7-6h7-----------------------------|
--------------------------------------------------------|
--------------------------------------------------------|
--------------------------------------------------------|
[ Tab from: http://www.guitartabs.cc/tabs/r/rufio/pirate_tab_ver_2.html ]
--------------------------------------------------------|
-------7------------------------------------------------|
-6h7-7--9-6-7-7p6h7-9~----------------------------------|
--------------------------------------------------------|
--------------------------------------------------------|
--------------------------------------------------------|

--------------------------------------------------------|
-------7------------------------------------------------|
-6h7-7--9-6-7-7p6h7-9-7-6h7-----------------------------|
--------------------------------------------------------|
--------------------------------------------------------|
--------------------------------------------------------|
[ Tab from: http://www.guitartabs.cc/tabs/r/rufio/pirate_tab_ver_2.html ]
--------------------------------------------------------|
-------7------------------------------------------------|
-6h7-7--9-6-7-7p6h7-9~-11~-12-12-12-12-11-11-11-11------|
--------------------------------------------------------|
--------------------------------------------------------|
--------------------------------------------------------|
Comments