Rufio - Pirate Chords & Tabs

 

Pirate Chords & Tabs

Rufio Chords & Tabs

Version: 1 Type: Tab 0 ratings
1 star 2 stars 3 stars 4 stars 5 stars
comments

Pirate Tab

   
Rufio
Pirate
1985

P.M..... -palm Mute where the dots are
/        -slide up
p        -pull off
x        -mute string
2x       -stop playing immediately after picked
^        -bend
r        -release back to original note
[ Tab from: http://www.guitartabs.cc/tabs/r/rufio/pirate_tab.html ]
Guitar One
Intro (x2)
e|--------------------------------------|
b|-----3-3------------------------------|
G|--------------------------------------|
D|--------------4-4------5-5-----7p4p0--|
A|-2-2------0-0--------------0-0--------|
E|-------------------3-3----------------|
  ....      ....     ...     ....
Second Intro Cont. (x2)
e|-------------------------------------------------------------|
b|-------------------------------------------------------------|
g|2/4-4-7-6^r---4-4-4---4-6-4---4--2/4-4-7-6^r---4--4-4---4-6~-|
D|------------7-------7-------7----------------7--------7------|
A|-------------------------------------------------------------|
E|-------------------------------------------------------------|
Verse (x2)
e|-------------------------------------------------------|
b|-------------------------------------------------------|
g|-------------------------------------------------------|
D|------------------7----------------------------7-7-----|
A|-2-0-2-0-2-0-2-0--5--5--7--4--2-0-2-0-2-0-2-0--5-5-7-7-|
E|---------------------3--5--2-----------------------5-5-|
      
Pre Chorus (x2)
e|--------------------------------------------------------------|
b|--------------------------------------------------------------|
g|--------------------------------------------------------------|
D|-5-5xxx-5--5xxx-5--5xxx-5--5xxx-------------------------------|
A|-5-5xxx-5--5xxx-5--5xxx-5--5xxx-2-2-0-2-4-5-4-0-2-2-0-2-4-5-4-|
E|-3-3xxx-3--3xxx-3--3xxx-3--3xxx-------------------------------|
Second Part of Post Chorus ("Is anyone...")
e|---------------------------------|
b|---------------------------------|
g|---------------------------------|
D|-5-5xxx-5--5xxx-5--7-7-7-7-7-7-7-|
A|-5-5xxx-5--5xxx-5--7-7-7-7-7-7-7-|
E|-3-3xxx-3--3xxx-3--5-5-5-5-5-5-5-|
Chorus is: Repeat Intro
           Repeat Second Intro
Breakdown-ish part (x2)
e|---------------------------------|
b|---------------------------------|
g|---------------------------------|
D|-4x--2-2-2--4x-5--4x--2-2-2--7-7-|
A|-2x--0-0-0--2x-5--2x--0-0-0--5-7-|
E|---------------3---------------5-|  
       .....            .....
Repeat Verse
Second Pre Chorus(x2)
e|---------------------------------------------------------------|
b|---------------------------------------------------------------|
g|---------11x-xxx----------9x-xxx-------------------------------|
D|-5x-xxx---xx-xxx--5x-xxx--xx-xxx-------------------------------|
A|-5x-xxx---9x-xxx--5x-xxx--7x-xxx-2-2-0-2-4-5-4-0-2-2-0-2-4-5-4-|
E|-3x-xxx-----------3x-xxx---------------------------------------|
                                   ...........  ..............  
Second part of Second Pre Chorus
e|-----------------------------------------|
b|-----------------------------------------|
g|---------11x-xxx-------------------------|
D|-5x-xxx---xx-xxx--5----------------------|
A|-5x-xxx---9x-xxx--5-7-7-7-7-7-7-7-7-7-7--|
E|-3x-xxx-----------3-5-5-5-5-5-5-5-5-5-5--|
                      ...............
Repeat Intro
Repeat Second Intro
Interlude
e|---------------------|
b|---------------------|
g|---------------------|
D|-4-4-4--2-2-2--5-5-5-|
A|-2-2-2--0-0-0--5-5-5-|
E|---------------3-3-3-|
Just bass for a while, then come in with(x2)
e|----------------------------------------|
b|----------------------------------------|
g|----------------------------------------|
D|-----0-0-----------------0-0------------|
A|-2-2-----0-0--5p4p0-----------0-0-5p4p0-|
E|---------------------3-3----------------|
Second Part of Interlude (x2)
e|------------------------------------|
b|------------------------------------|
g|------------------------------------|
D|-4-4x-----------------0-0-----------|
A|-2-2x--0-0-5p4p0----------0-0-5p4p0-|
E|------------------3-3---------------|
Third Part of Interlude
e|--------------------------------------------------------|
b|--------------------------------------------------------|
g|--------------------------------------------------------|
D|-4-4x----------------------------4-4x-----------5-5-7-7-|
A|-2-2x-0-0-5p4p0--5-5x-0-0-5p4p0--2-2x-0-0-5p4p0-5-5-7-7-|
E|-----------------3-3x---------------------------3-3-5-5-|
Repeat Pre Chorus
Repeat Second Part of Pre Chorus
Repeat Intro (x4)
Repeat Second Intro
Outro
e|--------------------------|
b|--------------------------|
g|--------------------------|
D|-7-7-7-7--7-6-7-9-7-9-11~-|
A|--------------------------|
E|--------------------------|



Guitar Two
Intro(x2)
e|------------------------------------------------------|
b|------------------------------------------------------|
g|-7-7-9-11-9-6-7--7-6-7-9-7-6--7-7-9-11-9-6-7--7-6-7-9-|
D|------------------------------------------------------|
A|------------------------------------------------------|
E|------------------------------------------------------|
Part Two Intro
e|-------------------------------------|
b|-------------------------------------|
g|-11~--12-12-12-12-12--11-11-11-11-11-|
D|-------------------------------------|
A|-------------------------------------|
E|-------------------------------------|
        .............................
Verse 
e|------------------------------------------------------------|
b|------------------------------------------------------------|
g|-11x-11x-11x-11x---14--11-9-11--11x-11x-11x-11x---7/9-9-7/6-|
D|--xx--xx--xx--xx----x--x--x--x---xx--xx--xx--xx---x/x-x-x/x-|
A|--9x--9x--9x--9x---12--9--7--9---9x--9x--9x--9x---5/7-7-5/4-|
E|------------------------------------------------------------|
Pre Chorus (x2)
e|-------------------------------------------------------------------|
b|-------------------------------------------------------------------|
g|-16-16xxx--16-16xxx-16-16xxx-16-16xxx------------------------------|
D|--x--xxxx---x--xxxx--x--xxxx--x--xxxx------------7-7-----------7-7-|
A|-14-14xxx--14-14xxx-14-14xxx-14-14xxx-7--7-6-7-9----7--7-6-7-9-----|
E|-------------------------------------------------------------------|
                                        .  ......     .  .......
Second Part of Pre Chorus
e|----------------------------------|
b|----------------------------------|
g|-16-16xxx-16-16/18-18-18-18-18-18-|
D|--x--xxxx--x--x/x---x--x--x--x--x-|
A|-14-14xxx-14-14/16-16-16-16-16-16-|
E|----------------------------------|
Repeat Intro (x2)
Breakdown
e|
b|
g|
D|
A|
e|
Interlude
e|----------------------|
b|----------------------|
g|-7-7-7--6-6-6--7-7-7x-|
D|-x-x-x--x-x-x--x-x-xx-|
A|-5-5-5--4-4-4--5-5-5x-|
E|----------------------|
Interlude Cont.-Comes in after a while(x2)
e|---------------------------------|
b|---------------------------------|
g|---------------------------------|
D|-4-4X-----4p2p0-----0------4p2p0-|
A|-2-2x-4-4-------2-2-----0-0------|
E|---------------------------------|
Interlude Part Three 
e|----------------------------------------------------------|
b|----------------------------------------------------------|
g|----------------------------------------------------------|
D|-4-4x-----4p2p0---5-5x------4p2p0-4-4x-----4p2p0----------|
A|-2-2x-4-4---------5-5x--0-0-------2-2x-4-4--------5-5-7-7-|
E|------------------3-3x----------------------------3-3-5-5-|
Repeat Pre Chourus (Both Parts)
Repeat Chorus(x4)
Ending
e|------------------------------------|
b|-----------------------14----14-15~-|
g|-16-16-16-16--16-14-16----16--------|
D|--x--x--x--x------------------------|
A|-14-14-14-14------------------------|
E|------------------------------------|
Comments