Rufio - Pirate Chords & Tabs

 

Pirate Chords & Tabs

Rufio Chords & Tabs

Version: 2 Type: Bass Tab

Pirate Bass Tab

This Is My First And I Hope You Like It! I Can Play This And It Is Very,
Very hard for beginners so i would learn this if you have been playing for long time!

Intro/Chorus
G-------------------------------
D-----00-------------00---------   X4 
A--22----00--55----------00-5h4-
E-----------------33------------

Verse
G----------------------------
D----------------------------    X4
A-2-0-2-0-2-0-2-0-2SL5555----
E------------------------5555
[ Tab from: http://www.guitartabs.cc/tabs/r/rufio/pirate_btab_ver_2.html ]
Bridge
G------------         G--------------           G-----------------
D------------         D--------------   X2then D-----------------
A------------  then   A-2-0-2SL-4h5h4           A-----------------
E-33-33-33-33         E--------------           E--33-33-33-555555


Chorus X4

Interlude
G-------------------------
D-------------------------
A---2-0-0-2---2-0-0-2--5--
E-----------3------------5

Verse X4
Bridge X2
Chorus X4

Then
G---------------
D---------------
A--222-000------
E------------333

Bass Solo
G------------------------------------
D-----00---------------00------------
A--22----00--5h4-0---------00--5h4-0-     X8
E-------------------33---------------

Bridge X1

Last Chorus
G----------------------
D----------------------
A--2222--0000------0000
E-------------3333-----

Well thats it! The Bass Solo is pretty cool cause it helps you learn how to use
all the strings for one of your own made up solo's!

Good Luck!!