Rufio - One Slowdance Chords & Tabs

 

One Slowdance Chords & Tabs

Rufio Chords & Tabs

Version: 1 Type: Tab 0 ratings
1 star 2 stars 3 stars 4 stars 5 stars
comments

One Slowdance Tab

GUITAR 1'S PARTS
INTRO (x2)
e|---------------------------------------------------------------------------|
B|-------4-------------------------------------------------------------------|
G|-----4---4---------1-----------4-------1-----3---------4-----------1-------|
D|---4-------4-----2---2-------6---6-------2-----4-----6---6-------2---2-----|
A|-2-------------2-------2---6-------6---------------6-------6---2-------2---|
E|-------------0-----------4-----------0-----2-----4-----------0-------------|

e|---------------------------------------------------------------------------|
B|-------4---------------------(on-the-second-time-let-the-------------------|
G|-----4---4---------3---------chord-ring-instead-of-playing-----------------|
D|---4-------4-----4---4--------the-arpeggio)--------------------------------|
A|-2-------------4-------4---------------------------------------------------|
E|-------------2-------------------------------------------------------------|

VERSE (repeat intro x2)

PRE-CHORUS (x4) - only palm mute on 1st and 3rd times  "I look you in the..."
e|---------------------------------------------------------------------------|
B|---------------------------------------------------------------------------|
G|-------------------------------------4-4-4---------------------------------|
D|-2-2-2-2-2-2-4-4-4-4-4-4-6-6-6-6-6-6-4-4-4-4-4-4---------------------------|
A|-2-2-2-2-2-2-4-4-4-4-4-4-6-6-6-6-6-6-2-2-2-4-4-4---------------------------|
E|-0-0-0-0-0-0-2-2-2-2-2-2-4-4-4-4-4-4-------2-2-2---------------------------|
  pm..................................

CHORUS (x2)  "You and me dancing the night..."
e|---------------------------------------------------------------------------|
B|---------------------------------------------------------------------------|
G|-4-4-4-4-4-4---------------------------------------------------------------|
D|-4-4-4-4-4-4-2-2-2-2-2-2-6-6-6-6-6-6-2-2-2-4-4-4-6-6-6-6-6-6-2-2-2-2-2-2---|
A|-2-2-2-2-2-2-2-2-2-2-2-2-6-6-6-6-6-6-2-2-2-4-4-4-6-6-6-6-6-6-2-2-2-2-2-2---|
E|-------------0-0-0-0-0-0-4-4-4-4-4-4-0-0-0-2-2-2-4-4-4-4-4-4-0-0-0-0-0-0---|
                                                   pm.....................
e|---------------------------------------------------------------------------|
B|----------------------------(on-the-second-time-let------------------------|
G|-4-4-4-4-4-4-----------------the-last-chord-ring---------------------------|
D|-4-4-4-4-4-4-4-4-4-4-4-4-----instead-of-strumming)-------------------------|
A|-2-2-2-2-2-2-4-4-4-4-4-4---------------------------------------------------|
E|-------------2-2-2-2-2-2---------------------------------------------------|

REPEAT INTRO (x1)

VERSE 2 (x4)
e|---------------------------------------------------------------------------|
B|---------------------------------------------------------------------------|
G|------------4-4-4-4-4-4----------------------------------------------------|
D|-4-4-4-4----4-4-4-4-4-4-2-2-2-2-2-2-6-6-6-6-6-6-4-4-4-4-4-4----------------|
A|-4-4-4-4----2-2-2-2-2-2-2-2-2-2-2-2-6-6-6-6-6-6-4-4-4-4-4-4----------------|
E|-2-2-2-2----------------0-0-0-0-0-0-4-4-4-4-4-4-2-2-2-2-2-2----------------|
   pm.....      .......   .....   ...   .......   .....   ...

REPEAT PRE-CHORUS

REPEAT CHORUS

BRIDGE "We don't have to talk..."
e|---------------------------------------------------------------------------|
B|---------------------------------------------------------------------------|
G|-6-6-6-6-6-6-9-9-9-9-9-9-4-4-4-4-4-4-------------6-6-6-6-6-6-9-9-9-9-9-9---|
D|-6-6-6-6-6-6-9-9-9-9-9-9-4-4-4-4-4-4-4-4-4-4-4-4-6-6-6-6-6-6-9-9-9-9-9-9---|
A|-4-4-4-4-4-4-7-7-7-7-7-7-2-2-2-2-2-2-4-4-4-4-4-4-4-4-4-4-4-4-7-7-7-7-7-7---|
E|-------------------------------------2-2-2-2-2-2---------------------------|

e|---------------------------------------------------------------------------|
B|---------------------------------------------------------------------------|
G|-8-8-8-\11-11-11-/6-6-6-\11-11-11--6-6-6-6-6-6-9-9-9-9-9-9-4-4-4-4-4-4-----|
D|-x-x-x---x--x--x--x-x-x---x--x--x--6-6-6-6-6-6-9-9-9-9-9-9-4-4-4-4-4-4-----|
A|-6-6-6-\-9--9--9-/4-4-4-\-9--9--9--4-4-4-4-4-4-7-7-7-7-7-7-2-2-2-2-2-2-----|
E|---------------------------------------------------------------------------|

e|---------------------------------------------------------------------------|
B|---------------------------------------------------------------------------|
G|-------------6-6-6-6-6-6-9-9-9-9-9-9--11-11-11-11-11-11--------------------|
D|-4-4-4-4-4-4-6-6-6-6-6-6-9-9-9-9-9-9---x--x--x--x--x--x--------------------|
A|-4-4-4-4-4-4-4-4-4-4-4-4-7-7-7-7-7-7---9--9--9--9--9--9--------------------|
E|-2-2-2-2-2-2---------------------------------------------------------------|

REPEAT CHORUS

NEXT PART (x4)                         NEXT NEXT PART (x6)
e|----------------------------------|----------------------------------------|
B|----------------------------------|-(slowly-release-plam-mute)-------------|
G|----------------------------------|-------------------4--3-----------------|
D|----------------------------------|-------------4-----------4--------------|
A|-2---2----------------------------|----------2-----2-----------------------|
E|-------0---0-2-4---4--0--2--------|----------------------------------------|
  pm..................                      pm..................

OUTRO
e|---------------------------------------------------------------------------|
B|---------------------------------------------------------------------------|
G|-11-11-9-8-8-9-9-11-11-9-8-8-9-9-11-11-9-8-8-9-9-11-11-14-14-14-13-14------|
D|--x--x-x-x-x-x-x--x--x-x-x-x-x-x--x--x-x-x-x-x-x--x--x--x--x--x--x--x------|
A|--9--9-7-6-6-7-7--9--9-7-6-6-7-7--9--9-7-6-6-7-7--9--9-12-12-12-11-12------|
E|---------------------------------------------------------------------------|

e|---------------------------------------------------------------------------|
B|---------------------------------------------------------------------------|
G|-16-16-15-16-16-15-16-16-18-20-21-20-20-20-20-20-20-16-16-16-16-16-15------|
D|--x--x--x--x--x--x--x--x--x--x--x--x--x--x--x--x--x--x--x--x--x--x--x------|
A|-14-14-13-14-14-13-14-14-16-18-19-18-18-18-18-18-18-14-14-14-14-14-13------|
E|---------------------------------------------------------------------------|
[ Tab from: http://www.guitartabs.cc/tabs/r/rufio/one_slowdance_tab.html ]
e|---------------------------------------------------------------------------|
B|---------------------------------------------------------------------------|
G|-16-16-16-16-16-16-15~--------16~------------------------------------------|
D|--x--x--x--x--x--x--x----------x-------------------------------------------|
A|-14-14-14-14-14-14-13~--------14~------------------------------------------|
E|---------------------------------------------------------------------------|

GUITAR 2'S PARTS:
Intro:  (2x)
e|---------------------------------------------------------------------------|
B|---------------------------------------------------------------------------|
G|---------------------------------------------------------------------------|
D|-------1---------4---4-2-1---1---------1-----------------------------------|
A|2--2h4---4-2-1-2---2-------4---4-2-2h4---4-2-1-2~-1~-----------------------|
E|---------------------------------------------------------------------------|

Verse:  (Repeat 16x)  "You're standing there alone..."
e|------7p6------------------------------------------------------------------|
B|--7-------7----------------------------------------------------------------|
G|4---4----------------------------------------------------------------------|
D|---------------------------------------------------------------------------|
A|---------------------------------------------------------------------------|
E|---------------------------------------------------------------------------|

Pre Chorus:  "I look you in the eyes..."
e|---------------------------------------------------------------------------|
B|---------------------------------------------------------------------------|
G|---------------------------------------------------------------------------|
D|--------------------------4---4-2-1---1---------1---------4---4-2-1---1----|
A|7-7-7-7-6-6-4-4-4-4-2-1-2---2-------4---4-2-2h4---4-2-1-2---2-------4---4--|
E|---------------------------------------------------------------------------|
  .......................

e|---------------------------------------------------------------------------|
B|---------------------------------------------------------------------------|
G|---------------------------------------------------------------------------|
D|--------------------------4---4-2-1---1---------1--------------------------|
A|7-7-7-7-6-6-4-4-4-4-2-1-2---2-------4---4-2-2h4---4-2-1-2~--1x-------------|
E|---------------------------------------------------------------------------|
  .......................

Chorus:  "You and me dancing the night..." (2x)
e|---------------------------------------------------------------------------|
B|---------------------------------------------------------------------------|
G|8-8-6-4-4-6-8-8-6-4-4-6-8-8-8-8-8-6-4-4-4-4-4-4-4-4-4-4-4-4-3-3-3-3-3-3----|
D|x-x-x-x-x-x-x-x-x-x-x-x-x-x-x-x-x-x-x-x-x-x-x-x-x-x-x-x-x-x-x-x-x-x-x-x----|
A|6-6-4-2-2-4-6-6-4-2-2-4-6-6-6-6-6-4-2-2-2-2-2-2-2-2-2-2-2-2-1-1-1-1-1-1----|
E|---------------------------------------------------------------------------|
                                      ...........

REPEAT INTRO (1x)

REPEAT VERSE

REPEAT PRE CHORUS

REPEAT CHORUS

Bridge:  "We don't have to talk..."  (4x)
e|7-----7-----7-----7-----7-----7-----6-----6--------------------------------|
B|--7-----7-----7-----7-----7-----7-----7-----7------------------------------|
G|----4-----4-----4-----4-----4-----4-----4-----4----------------------------|
D|---------------------------------------------------------------------------|
A|---------------------------------------------------------------------------|
E|---------------------------------------------------------------------------|

Last part of bridge:
e|---------------------------------------------------------------------------|
B|---------------------------------------------------------------------------|
G|3-3-3-3-3-3x---------------------------------------------------------------|
D|x-x-x-x-x-x----------------------------------------------------------------|
A|1-1-1-1-1-1x---------------------------------------------------------------|
E|---------------------------------------------------------------------------|

REPEAT CHORUS

Next Part:  (2x)
e|---------------------------------------------------------------------------|
B|---------------------------------------------------------------------------|
G|---------------------------------------------------------------------------|
D|-4---4---------------------------------------------------------------------|
A|-------2---2-4-6---6-2-4---------------------------------------------------|
E|---------------------------------------------------------------------------|
   ...................

Next Part Cont'd:  (2x)
e|---------------------------------------------------------------------------|
B|---------------------------------------------------------------------------|
G|---------------------------------------------------------------------------|
D|4-4-4-4-4-4-4-4-4-4-4-4-4-4-2-2-1-1-2-2-1-1--------------------------------|
A|--------------------------------------------4-4----------------------------|
E|---------------------------------------------------------------------------|

Next Part Cont'd:  (2x)
e|---------------------------------------------------------------------------|
B|---------------------------------------------------------------------------|
G|4-4-4-4-4-4----------------------------------------------------------------|
D|4-4-4-4-4-4-2-2-2-2-2-4-6-6-6-6-6-6-2-2-2-4-4-4----------------------------|
A|2-2-2-2-2-2-2-2-2-2-2-4-6-6-6-6-6-6-2-2-2-4-4-4----------------------------|
E|------------0-0-0-0-0-2-4-4-4-4-4-4-0-0-0-2-2-2----------------------------|
  ...............................................

Outro:
e|---------------------------------------------------------------------------|
B|---------------------------------------------------------------------------|
G|8-8-6-4-4-6-8-8-6-4-4-6-4-4-6-4-4-6-4-4-4-4-4-4-3-3-3-3-3-3----------------|
D|x-x-x-x-x-x-x-x-x-x-x-x-x-x-x-x-x-x-x-x-x-x-x-x-x-x-x-x-x-x----------------|
A|6-6-4-2-2-4-6-6-4-2-2-4-6-6-4-2-2-4-2-2-2-2-2-2-1-1-1-1-1-1----------------|
E|---------------------------------------------------------------------------|

Outro Cont'd:
e|---------------------------------------------------------------------------|
B|---------------------------------------------------------------------------|
G|8-8-6-4-4-6-8-8-6-4-4-6-8-8-8-8-8-6-4-4-4-4-4-6-4-4-4-4-4-4-3-3-3-3-3-3-8~-|
D|x-x-x-x-x-x-x-x-x-x-x-x-x-x-x-x-x-x-x-x-x-x-x-x-x-x-x-x-x-x-x-x-x-x-x-x-x--|
A|6-6-4-2-2-4-6-6-4-2-2-4-6-6-6-6-6-4-2-2-2-2-2-4-2-2-2-2-2-2-1-1-1-1-1-1-6~-|
E|---------------------------------------------------------------------------|

E-mail me at Cruzinespy7@aol.com
Comments