Rufio - One Slowdance Chords & Tabs

 

One Slowdance Chords & Tabs

Rufio Chords & Tabs

Version: 1 Type: Bass Tab 0 ratings
1 star 2 stars 3 stars 4 stars 5 stars
comments

One Slowdance Bass Tab

Intro
G-----------------------------\
D----------------------------- \Repeat with a
A-2--------------------2------ /0 before the 2
E---0-0h2h4-0-2-4-0-0h5--6542-/

Verse (4x)
G-----------------------------
D-----------------------------
A-222222----------------------
E--------000000-444444-222222-

Pre-Chorus (4x)
G------------------------------
D------------------------------
A----------------------222-----
E-000000-222222-444444-----222-

Chorus (2x) *For the second time played I don't know the high climb that he does 
instead of the triples so I play withough it. If anyone knows it let me know

G----------------------------------------------------------
D----------------------------------------------------------
A-222222-------------------------------------222222--------
E--------000000-444444-000-222-444444-000000--------222222-

Repeat Intro

Verse 2 (4x)
G-------------------------
D-------------------------
A-2-222-------------------
E-------0-000-4-444-2-222-
[ Tab from: http://www.guitartabs.cc/tabs/r/rufio/one_slowdance_btab.html ]
Repeat Pre-chorus

Repeat Chorus

Bridge
G----------------------------------------------------------
D----------------------------------------------------------
A-444444-777777-222222--------444444-777777-666-999-444-999
E----------------------222222------------------------------

(Cont.)
G-------------------------------------------------------
D-------------------------------------------------------
A-444444-777777-222222--------444444-777777-9-9-9-9-9-9-
E----------------------222222---------------------------

Repeat Chorus

Interlude(4x)
G---------------------
D---------------------
A-2--2----------------
E-----0--0-2-4--4-0-2-

After Interlude (2x)
G------------------------------
D------------------------------
A-222222-----------------------
E--------000000-444444-222-444-

Ending
*I'm still working on it so I'll update later.

Any questions or answers E-mail me at kelliki86@hotmail.com
If you know the high climb he does or the full ending then E-mail it to me. Thanx.
Comments