Rufio - Never Learn Chords & Tabs

 

Never Learn Chords & Tabs

Rufio Chords & Tabs

Version: 1 Type: Tab 0 ratings
1 star 2 stars 3 stars 4 stars 5 stars
comments

Never Learn Tab

Artist- Rufio
Song- Never Learn
Album- The Comfort Of Home
Tabber- Array45

this song is really fast and really hard to play. at leasy i think so. so far, i could 
come up with the beginning part but here it goes.

-----------------------------------|
--------------9---7---9---7---5----|
---------6----9---8---9---8---6----|
------6----------------------------|
---5-------------------------------|
-----------------------------------|
  x3  x3 x2
[ Tab from: http://www.guitartabs.cc/tabs/r/rufio/never_learn_tab.html ]
--------------|---------------------------------------|
--------------|---------------------------------------|
-----------6--|---------------------------------------|
--------7-----|-----9---------------------------------|
-----7--------|--------9------------------------------|
--5-----------|--7------------------------------------|
 x3 x2 x2       x3 x3  x2

thats all i have so far. i know it doesnt sound 100% correct but its close. ill put the 
of the song up when i figure it out.
Comments