Rufio - Let Fate Decide Chords & Tabs

 

Let Fate Decide Chords & Tabs

Rufio Chords & Tabs

Version: 1 Type: Tab 0 ratings
1 star 2 stars 3 stars 4 stars 5 stars
comments

Let Fate Decide Tab

   
Artist- Rufio
Song- Let Fate Decide
Album- The Comfort Of Home
Tabber- Array45

this is a really good song. i cant figure out the soloing during the chorus but ill try 
then ill put it up.

tuning- standard

--------------------|------------------|------------------|------------------|
--------------------|------------------|------------------|------------------|
--------------------|------------------|------------------|------------------|
--6-6-6---8h9p8-----|-6-6-6--8h9p8-----|-2-2-2--8h9p8-----|-4-4-4--8h9p8---6-|
--6-6-6---------9-6-|-6-6-6--------9-6-|-2-2-2--------9-6-|-4-4-4--------9---|
--4-4-4-------------|-4-4-4------------|-0-0-0------------|-2-2-2------------|


--------|-------|-------|--------|
--------|-------|-------|--------|
--------|-------|-------|--------|
--6-6-6-|-6-6-6-|-2-2-2-|-4-4-4--|
--6-6-6-|-6-6-6-|-2-2-2-|-4-4-4--|
--4-4-4-|-4-4-4-|-0-0-0-|-2-2-2--|


--------------|---------------------------------|
--------7-----|----------12-11-9----------------|
------9---9---|------11-------------------------|
----9-------9-|---11----------------------------|
--7-----------|-9-------------------------------|
--------------|---------------------------------|

[ Tab from: http://www.guitartabs.cc/tabs/r/rufio/let_fate_decide_tab.html ]
-----------|--------------------|----------------|
-----------|--------------------|----------------|
-----------|--------------------|----------------|
--6--2--4--|-----------1--------|--6--2--4-------|
--6--2--4--|--2-2-2--4---4-2-1--|--6--2--4-------|
--4--0--2--|--------------------|--4--0--2-------|

   B       F#
---x-------1-------------------------------------|
---3-------1-------------------------------------|
---3-------2-------------------------------------|
---3-------4-------------------------------------|
---1-------3-------------------------------------|
---x-------1-------------------------------------|

Repeat Verse

Repeat Bridge

Repeat Courus

-----------------------------|----------------------------------|
-----------------------------|----------------------------------|
-----------------------------|--6-------------------------------|
--2-2-2--2-2-2--4-4-4--4-4-4-|----7---7-5-----------------------|
--2-2-2--2-2-2--4-4-4--4-4-4-|------5-----7-5-------------------|
--0-0-0--0-0-0--2-2-2--2-2-2-|----------------------------------|
pm                              . . . . . . .


Repeat Chorus


------------------|
------------------|
------------------|
---9---8---6~~~~~-|
---9---8---6~~~~~-|
---7---6---4~~~~~-|


im gonna try to figure out the soloing in the chorus and the one towards the end. ill 
to put it up as soon as i can.
Comments