Rufio - Just A Memory Chords & Tabs

 

Just A Memory Chords & Tabs

Rufio Chords & Tabs

Version: 1 Type: Tab 0 ratings
1 star 2 stars 3 stars 4 stars 5 stars
comments

Just A Memory Tab

   
GUITAR 1'S PARTS:
Intro:  Guitar 1  (2x)
e|---------------------------------------------------------------------------
B|---------------------------------------------------------------------------
G|---------------------------------------------------------------------------
D|4-4-4-4-4-4-7-7-7-7-7-7-7-7-7-7-7-7-7-7-7-7-7-7-4-4-4-4-4-4-7-7-7-7-7-7----
A|4-4-4-4-4-4-7-7-7-7-7-7-7-7-7-7-7-7-7-7-7-7-7-7-4-4-4-4-4-4-7-7-7-7-7-7----
E|2-2-2-2-2-2-4-4-4-4-4-4-5-5-5-5-5-5-5-5-5-5-5-5-2-2-2-2-2-2-4-4-4-4-4-4----
    PM.......               PM.......               PM.......


e|---------------------------------------------------------------------------
B|---------------------------------------------------------------------------
G|7-7-7-7-7-7-7-7------------------------------------------------------------
D|7-7-7-7-7-7-7-7------------------------------------------------------------
A|5-5-5-5-5-5-5-5------------------------------------------------------------
E|---------------------------------------------------------------------------

Verse:  Guitar 1  "The sadness comes..."  (2x)
e|---------------------------------------------------------------------------
B|---------------------------------------------------------------------------
G|--------------------------------------------------------7-7-7-7-7-9-9-9-9-9
D|4-7-7-7-7-7-7-7-7-7-7-7-7-7-7-7-7-7-7-7-7-7-4-4-4-4-4-4-7-7-7-7-7-9-9-9-9-9
A|4-7-7-7-7-7-7-7-7-7-7-7-7-7-7-7-7-7-7-7-7-7-4-4-4-4-4-4-5-5-5-5-5-7-7-7-7-7
E|2-4-5-5-5-5-5-5-4-4-4-4-4-4-4-4-4-4-4-4-5-4-2-2-2-2-2-2--------------------

"Just when I thought..."
e|---------------------------------------------------------------------------
B|---------------------------------------------------------------------------
G|---------------------------------------------------------------------------
D|4-4-4-4-4-4-4-4-7-7-7-7-7-7-7-7-7-7-7-7-7-7-7-7----------------------------
A|4-4-4-4-4-4-4-4-7-7-7-7-7-7-7-7-7-7-7-7-7-7-7-7-7-5-4-5-4------------------
E|2-2-2-2-2-2-2-2-4-4-4-4-4-4-4-4-5-5-5-5-5-5-5-5-----------5----------------

"My stomach full of..."
e|---------------------------------------------------------------------------
B|---------------------------------------------------------------------------
G|---------------------------------------------------------------------------
D|4-4-4-4-4-4-4-4-7-7-7-7-7-7-7-7-7-7-7-7-7-7-7-7-2~-------------------------
A|4-4-4-4-4-4-4-4-7-7-7-7-7-7-7-7-7-7-7-7-7-7-7-7-2~-------------------------
E|2-2-2-2-2-2-2-2-4-4-4-4-4-4-4-4-5-5-5-5-5-5-5-5-0~-------------------------

(2x)  "I remember you and me..."
e|---------------------------------------------------------------------------
B|---------------------------------------------------------------------------
G|7-7-7-7-7-7-7-6-----------------------------------7-7-7-7-7-9-9-9-9-9------
D|x-x-x-x-x-x-x-x-7-7-7-7-7-7-7-7-2-4-4-4-4-4-4-4-4-x-x-x-x-x-x-x-x-x-x------
A|5-5-5-5-5-5-5-4-7-7-7-7-7-7-7-7-2-4-4-4-4-4-4-4-4-5-5-5-5-5-7-7-7-7-7------
E|----------------5-5-5-5-5-5-5-4-0-2-2-2-2-2-2-2-2--------------------------

Repeat Intro

Repeat Verse:  The love that I had for you
               Is gone has drifted so far away
               But you're still here
               In my head and you're still here
               You'll never leave my heart

Verse Cont'd:  Guitar 1  "Just when I thought..."
e|---------------------------------------------------------------------------
B|---------------------------------------------------------------------------
G|---------------------------------------------------------------------------
D|4-4-4-4-4-4-4-4-4-7-7-7-7-7-7-7-7-7-7-7-7-7-7-7-7-7-7----------------------
A|4-4-4-4-4-4-4-4-4-7-7-7-7-7-7-7-7-7-7-7-7-7-7-7-7-7-7-7-5-4-5-4------------
E|2-2-2-2-2-2-2-2-2-4-4-4-4-4-4-4-4-4-5-5-5-5-5-5-5-5-5-----------5x---------
    PM.............   PM.............   PM.............

"My stomach full of..."
e|---------------------------------------------------------------------------
B|---------------------------------------------------------------------------
G|---------------------------------------------------------------------------
D|4-4-4-4-4-4-4-4-7-7-7-7-7-7-7-7-7-7-7-7-7-7-7-7-2~-------------------------
A|4-4-4-4-4-4-4-4-7-7-7-7-7-7-7-7-7-7-7-7-7-7-7-7-2~-------------------------
E|2-2-2-2-2-2-2-2-4-4-4-4-4-4-4-4-5-5-5-5-5-5-5-5-0~-------------------------

(2x)  "I remember you and me..."
e|---------------------------------------------------------------------------
B|---------------------------------------------------------------------------
G|7-7-7-7-7-7-7-6-----------------------------------7-7-7-7-7-9-9-9-9-9------
D|x-x-x-x-x-x-x-x-7-7-7-7-7-7-7-7-2-4-4-4-4-4-4-4-4-x-x-x-x-x-x-x-x-x-x------
A|5-5-5-5-5-5-5-4-7-7-7-7-7-7-7-7-2-4-4-4-4-4-4-4-4-5-5-5-5-5-7-7-7-7-7------
E|----------------5-5-5-5-5-5-5-4-0-2-2-2-2-2-2-2-2--------------------------

Chorus:  Guitar 1  "So stop me now..."
e|---------------------------------------------------------------------------
B|---------------------------------------------------------------------------
G|7-7-7-7-7-7-7-7-7-7-9-9-9-9-9-9-9-9-9-9------------------------------------
D|7-7-7-7-7-7-7-7-7-7-9-9-9-9-9-9-9-9-9-9-7-7-7-7-7-7-7-7-7-7-4-4-4-4-4-2-2-2
A|5-5-5-5-5-5-5-5-5-5-7-7-7-7-7-7-7-7-7-7-7-7-7-7-7-7-7-7-7-7-4-4-4-4-4-2-2-2
E|----------------------------------------5-5-5-5-5-4-4-4-4-4-2-2-2-2-2-0-0-0


e|---------------------------------------------------------------------------
B|---------------------------------------------------------------------------
G|----7-7-7-7-7-7-7-7-7-7-9-9-9-9-9-9-9-9-9-9--------------------------------
D|2-2-7-7-7-7-7-7-7-7-7-7-9-9-9-9-9-9-9-9-9-9--------------------------------
A|2-2-5-5-5-5-5-5-5-5-5-5-7-7-7-7-7-7-7-7-7-7-----7-----7-----7-----7-----4--
E|0-0-----------------------------------------5-5---5-5---4-4---4-4---2-2---- 
                                              PM.   PM.   PM.   PM.   PM.

[ Tab from: http://www.guitartabs.cc/tabs/r/rufio/just_a_memory_tab.html ]
e|---------------------------------------------------------------------------
B|---------------------------------------------------------------------------
G|------------------7-7-7-7-7-7-7-7-7-7-9~-----------------------------------
D|------------------7-7-7-7-7-7-7-7-7-7-9~-----------------------------------
A|----4-----2-----2-5-5-5-5-5-5-5-5-5-5-7~-----------------------------------
E|2-2---0-0---0-0------------------------------------------------------------
  PM.   PM.   PM.

Outro:  Guitar 1
e|---------------------------------------------------------------------------
B|---------------------------------------------------------------------------
G|---------------------------------------------------------------------------
D|4-4-4-4-4-4-7-7-7-7-7-7-7-7-7-7-7-7-7-7-7-7-7-7-4-4-4-4-4-4-7-7-7-7-7-7----
A|4-4-4-4-4-4-7-7-7-7-7-7-7-7-7-7-7-7-7-7-7-7-7-7-4-4-4-4-4-4-7-7-7-7-7-7----
E|2-2-2-2-2-2-4-4-4-4-4-4-5-5-5-5-5-5-5-5-5-5-5-5-2-2-2-2-2-2-4-4-4-4-4-4----
    PM.......               PM.......               PM.......

"Cuz I don't want to be..."
e|---------------------------------------------------------------------------
B|---------------------------------------------------------------------------
G|7-7-7-7-7-7-7-7------------------------------------------------------------
D|7-7-7-7-7-7-7-7-4-4-4-4-4-4-7-7-7-7-7-7-7-7-7-7-7-7-7-7-7-7-7-7------------
A|5-5-5-5-5-5-5-5-4-4-4-4-4-4-7-7-7-7-7-7-7-7-7-7-7-7-7-7-7-7-7-7------------
E|----------------2-2-2-2-2-2-4-4-4-4-4-4-5-5-5-5-5-5-5-5-5-5-5-5------------
                    PM.......               PM.......


e|---------------------------------
B|---------------------------------
G|7-7-7-7-7-7-7-7-7-7-7-7-9~-------
D|7-7-7-7-7-7-7-7-7-7-7-7-9~-4~----
A|5-5-5-5-5-5-5-5-5-5-5-5-7~-4~----
E|---------------------------2~----

GUITAR 2'S PARTS:
Intro:  Guitar 2  (2x)
e|---------------------------------------------------------------------------
B|---------------------------------------------------------------------------
G|9-7-6-6-6--9-7-6------9-7-6-6-6-11-11-11-11-11-11-11-----------------------
D|x-x-x-x-x--x-x-x-7-7--x-x-x-x-x--x--x--x--x--x--x--x-----------------------
A|7-5-4-4-4--7-5-4-x-x--7-5-4-4-4--9--9--9--9--9--9--9-----------------------
E|-----------------5-5-------------------------------------------------------

Verse:  Guitar 2  "The sadness comes..."  (2x)
e|---------------------------------------------------------------------------
B|---------------------------------------------------------------------------
G|14-13-6-6-6-6-14-13-14-16-14-13-14-13-6-6-6-6-14-14-14-14-14-16-16-16-16-16
D|-x--x-x-x-x-x--------------------x--x-x-x-x-x--x--x--x--x--x--x--x--x--x--x
A|12-11-4-4-4-4-------------------12-11-4-4-4-4-12-12-12-12-12-14-14-14-14-14
E|---------------------------------------------------------------------------

"Just when I thought..."
e|---------------------------------------------------------------------------
B|---------------------------------------------------------------------------
G|6-6-6-6-6-6-6-6-4-4-4-4-4-4-4-4-6-6-6-6-6-6-6-6--------------6-6-6-6-6-6-6-
D|x-x-x-x-x-x-x-x-x-x-x-x-x-x-x-x-x-x-x-x-x-x-x-x--------------x-x-x-x-x-x-x-
A|4-4-4-4-4-4-4-4-2-2-2-2-2-2-2-2-4-4-4-4-4-4-4-4-7-5-4-5-4----4-4-4-4-4-4-4-
E|----------------------------------------------------------5x---------------


e|---------------------------------------------------------------------------
B|---------------------------------------------------------------------------
G|4-4-4-4-4-4-4-4-6-6-6-6-6-6-6-6--------------------------------------------
D|x-x-x-x-x-x-x-x-x-x-x-x-x-x-x-x--2~----------------------------------------
A|2-2-2-2-2-2-2-2-4-4-4-4-4-4-4-4--2~----------------------------------------
E|--------------------------------/0~----------------------------------------

"I remember you and me..."  
                                                     
e|---------------------------------------------------------------------------
B|---------------------------------------------------------------------------
G|11--9--14--13--6-----------------------------------------------------------
D|-x--x---x---x--x-----------------------------------------------------------
A|-9--7--12--11--4-----------------------------------------------------------
E|---------------------------------------------------------------------------

Repeat Intro

Repeat Verse:  The love that I had for you
               Is gone has drifted so far away
               But you're still here in my head
               And you're still here
               You'll never leave my heart

Verse Cont'd:  Guitar 2  "Just when I thought..." (Comes in right after Guitar 1)
e|---------------------------------------------------------------------------
B|---------------------------------------------------------------------------
G|--------------6-6-6-6-6-6-6-6-4-4-4-4-4-4-4-4-6-6-6-6-6-6-6-6--------------
D|--------------x-x-x-x-x-x-x-x-x-x-x-x-x-x-x-x-x-x-x-x-x-x-x-x--2~----------
A|7-5-4-5-4-----4-4-4-4-4-4-4-4-2-2-2-2-2-2-2-2-4-4-4-4-4-4-4-4--2~----------
E|----------5x--------------------------------------------------/0~----------

Repeat next part of Verse

Chorus:  Guitar 2  "So stop me now..."
e|---------------------------------------------------------------------------
B|---------------------------------------------------------------------------
G|7-7-7-7-7-7-7-7-4-4-4-4-4-4-4-4-------------------------7-7-7-7-7-7-7-7----
D|x-x-x-x-x-x-x-x-x-x-x-x-x-x-x-x---5-4---5-4---5-4---5-4-x-x-x-x-x-x-x-x----
A|5-5-5-5-5-5-5-5-2-2-2-2-2-2-2-2-5-----5-----5-----5-----5-5-5-5-5-5-5-5----
E|---------------------------------------------------------------------------


e|---------------------------------------------------------------------------
B|---------------------------------------------------------------------------
G|4-4-4-4-4-4-4-4-------------------------11-11-11-11-11-11-11-11-13~--14~---
D|x-x-x-x-x-x-x-x---5-4---5-4---5-4---5-4--x--x--x--x--x--x--x--x--x----x----
A|2-2-2-2-2-2-2-2-5-----5-----5-----5------9--9--9--9--9--9--9--9-11~--12~---
E|---------------------------------------------------------------------------
Repeat Intro

Outro: Guitar 2  "Cuz I don't want to be just a memory to you."
e|---------------------------------------------------------------------------
B|---------------------------------------------------------------------------
G|11-11-11-11-11-11-11-11-13~--14~-------------------------------------------
D|-x--x--x--x--x--x--x--x--x----x--------------------------------------------
A|-9--9--9--9--9--9--9--9-11~--12~-------------------------------------------
E|---------------------------------------------------------------------------
Comments