Rufio - Just A Memory Chords & Tabs

 

Just A Memory Chords & Tabs

Rufio Chords & Tabs

Version: 1 Type: Bass Tab 0 ratings
1 star 2 stars 3 stars 4 stars 5 stars
comments

Just A Memory Bass Tab

Title: Just a Memory
Artist: Rufio
Album: Perhaps, I Suppose...
Tabbed by: katie (katiex182@yahoo.com)

the number of times you play each note may not be accurate, but its not hard 
to figure it out. :)

intro (2x)
G|-------------------------------------------------------------------||
D|-------------------------------------------------------------------||
A|------------------------------55555555-----------------------------||
E|-2222-4444-55555555-2222-4444--------------------------------------||

Verse (the sadness comes...) 2x
G|-------------------------------------------------------------------||
D|-------------------------------------------------------------------||
A|-------------------------------5555-7777---------------------------||
E|-2-4-555555-4444444444-5-4-2222------------------------------------||

Prechorus (just when I thought...)
G|-------------------------------------------------------------------||
D|-------------------------------------------------------------------||
A|----------------------------7-5-4-5-7-4----------------------------||
E|-22222222-44444444-55555555----------------------------------------||
[ Tab from: http://www.guitartabs.cc/tabs/r/rufio/just_a_memory_btab.html ]
(my stomach full of butterflies...)
G|-------------------------------------------------------------------||
D|-------------------------------------------------------------------||
A|-------------------------------------------------------------------||
E|-22222222-44444444-55555555-0000-----------------------------------||

chorus (i remember you and me...) 2x
G|-------------------------------------------------------------------||
D|-------------------------------------------------------------------||
A|-5555555-----------------------5555-7777---------------------------||
E|---------55555555-4-0-22222222-------------------------------------||

repeat intro
repeat verse
repeat prechorus
repeat chorus

"so, stop me now..."
G|-------------------------------------------------------------------||
D|-------------------------------------------------------------------||
A|-55555555-77777777-------------------------------------------------||
E|-------------------5555-4444-2222-0000-----------------------------||
repeat 2x then
"cause i dont want to be..."
A|---5555-7777~---|

outro
G|-------------------------------------------------------------------||
D|-------------------------------------------------------------------||
A|------------------------------55555555-----------------------------||
E|-2222-4444-55555555-2222-4444----------2222-4444-55555555-2222-4444||

G|-------------------------------------------------------------------||
D|-------------------------------------------------------------------||
A|--55555555-7~------------------------------------------------------||
E|--------------2~---------------------------------------------------||

and thats all.  any questions, comments, etc feel free to email me 
katiex182@yahoo.com
www.hawt.tk
Comments