Rufio - Interlude 3 Chords & Tabs

 

Interlude 3 Chords & Tabs

Rufio Chords & Tabs

Version: 1 Type: Tab 0 ratings
1 star 2 stars 3 stars 4 stars 5 stars
comments

Interlude 3 Tab

e|-1---5-----5-6-5-3-1------1--3--1-0---0-| 2x
b|---3----6--------------3------------3---|
g|---------------------3------------------|
d|----------------------------------------|
a|----------------------------------------|
e|----------------------------------------|

        po         po      po
e|-1-1-1-0----5-5-5-3--1-1-1-0---5-3-|
b|---------3---------6---------3-----|
g|-----------------------------------|
d|-----------------------------------|
a|-----------------------------------|
e|-----------------------------------|
[ Tab from: http://www.guitartabs.cc/tabs/r/rufio/interlude_3_tab.html ]
        po         po          
e|-1-1-1-0----5-5-5-3------------------|
b|---------3----------6v---------------|
g|-------------------------------------|
d|-------------------------------------|
a|-------------------------------------|
e|-------------------------------------|

        po        po       po
e|-1-1-1-0---5-5-5-3--1-1-1-0---5-3-|
b|---------3---------6--------3-----|
g|----------------------------------|
d|----------------------------------|
a|----------------------------------|
e|----------------------------------|

        po        po     po      po
e|-1-1-1-0---5-5-5-3----10-8----10-8---------------|
b|---------3--------6--------10------10--13(bu)15v-|
g|-------------------------------------------------|
d|-------------------------------------------------|
a|-------------------------------------------------|
e|-------------------------------------------------|
Comments