Rufio - Interlude 2 Chords & Tabs

 

Interlude 2 Chords & Tabs

Rufio Chords & Tabs

Version: 1 Type: Tab 0 ratings
1 star 2 stars 3 stars 4 stars 5 stars
comments

Interlude 2 Tab

--------------------------------------
                Rufio
--------------------------------------

Artist- Rufio
Song- Interlude #2 (#8 on the cd)
Album- The Comfort of Home
Tabber- Array45

   The Comfort of Home is such a good cd. i love it. this song is number 8 on the cd.

Tuning- Drop D


--------------------------------------|
--------------------------------------|
--------------------------------------|
----------------------5---------------|
------0----0----3-----3---------------|
------0----0----3---------------------|
pm    .    .    .     .
     (x4) (x4) (x4)  (x4)

---------------------------------------------------------------|
---------------------------------------------------------------|
---------------------------------------------------------------|
-------------------------------------------------5----5----5---|
----0----0----0----0----0----0----3----3----3----3----3----3---|
----0----0----0----0----0----0----3----3----3------------------|
pm  .    .    .    .    .    .    .    .    .    .    .    .
   (x4) (x4) (x2) (x4) (x4) (x2) (x4) (x4) (x2) (x4) (x4) (x2)

---------------------------------------------------------------|
---------------------------------------------------------------|
---------------------------------------------------------------|
-------------------------------------------------5----5----5---|
----0----0----0----0----0----0----3----3----3----3----3----3---|
----0----0----0----0----0----0----3----3----3------------------|
pm       .    .         .    .         .    .         .    .
   (x4) (x4) (x2) (x4) (x4) (x2) (x4) (x4) (x2) (x4) (x4) (x2)
[ Tab from: http://www.guitartabs.cc/tabs/r/rufio/interlude_2_tab.html ]
---------------------------------------------------------------|
---------------------------------------------------------------|
---------------------------------------------------------------|
-------------------------------------------------5----5----5---|
----0----0----0----0----0----0----3----3----3----3----3----3---|
----0----0----0----0----0----0----3----3----3------------------|
   (x4) (x4) (x2) (x4) (x4) (x2) (x4) (x4) (x2) (x4) (x4) (x?)


X6
---------------------------------------------------------------|
---------------------------------------------------------------|
---------------------------------------------------------------|
----------------7--8p7-----------------------------------------|
----5-----8--5---------10--8---5-----8--5--7h8p7p5h7-----------|
-------7--------------------------7----------------------------|

---------------------------------------------------------------|
---------------------------------------------------------------|
---------------------------------------------------------------|
-------------------------------------------------5----5----5---|
----0----0----0----0----0----0----3----3----3----3----3----3---|
----0----0----0----0----0----0----3----3----3------------------|
   (x4) (x4) (x2) (x4) (x4) (x2) (x4) (x4) (x2) (x4) (x4) (x2)

----------------------------------------------------------------|
----------------------------------------------------------------|
----------------------------------------------------------------|
----------------------------------------------------------------|
----------------------------------------------------------------|
---0----0----0~~~~~----0~~~~~----0~~~~~----0~~~~~---------------|
pm           .         .         .         .
 (x4)  (x4)


thats it. its easy to play. if u dont hav this cd.. go buy it now
Comments