Rufio - In My Eyes Chords & Tabs

 

In My Eyes Chords & Tabs

Rufio Chords & Tabs

Version: 5 Type: Tab 0 ratings
1 star 2 stars 3 stars 4 stars 5 stars
comments

In My Eyes Tab

   
----------------------------------------------------------------------------
IN MY EYES
----------------------------------------------------------------------------

By:xrufiorcksx
PM= Palm Mute
/=Slide
H=Hammeron
P=Pull off
~=let it ring
Tuning=e-b-g-d-a-e

Intro
e-----------------------------------------
b------------6--------------------6-------
g-3~-3~-2~--3-3-5-3-2--3~-3~-2~--3-3-5-3-2
d-5~-5~-3~-------------5~-5~-3~-----------
a-----------------------------------------
e-----------------------------------------

e----------------------------------------------13-11-10--------13-11-10
b----6-4-3----6-4-3----6-4-3-1-3-4-6-8-10-11-11----------13-13---------
g-3-3------5-5------3-3------------------------------------------------
d----------------------------------------------------------------------
a----------------------------------------------------------------------
e----------------------------------------------------------------------

e-------13-11-10------------------
b-11-11----------11/13-11-10-11-10
g---------------------------------
d---------------------------------
a---------------------------------
e---------------------------------

2nd part     (not sure how many times you should do this)
e-------------------------------------------------------
b--------3h6-3------------------------------------------
g-3pm-3pm-----------------------------------------------
d-------------------------------------------------------
a-------------------------------------------------------
e-------------------------------------------------------

3rd part  (3x)
e-------------------------------------------------
b-3-3-1-1-1---1-1-1-3-3-------3--------3---------3
g----------2-2---------3pm-3pm--3pm-3pm--3pm-3pm--
d-------------------------------------------------
a-------------------------------------------------
e-------------------------------------------------

e--------------------------------------------
b-4-4-4-4-4-4-4-4-4-4-4----------------------
g----------------------5-5-5-5-5-5-5-5-5-5-5-
d--------------------------------------------
a--------------------------------------------
e--------------------------------------------
4th part
(listen for strumming for (3) and (2)
                          (5)     (3)
e--------------------------------------------
b------------6--------------------6----------
g-3---2-----3-3-5-3-2--3---2-----3-3-5-3-2--3
d-5---3----------------5---3----------------5
a--------------------------------------------
e--------------------------------------------

e-----------------------------------------
b----6-4-2----6-4-2----6-4-2--------------
g-3-3------5-5------3-3------3/5-3-2-3-2-0
d-----------------------------------------
a-----------------------------------------
e-----------------------------------------

Bass and drum part
e--------------------------------------------------------------------------
b-//////////////(in some part in that song---------------------------------
g-//////////////(use your pick to slide it up towards the b g and d strings 
d-//////////////-----------------------------------------------------------
a--------------------------------------------------------------------------
e--------------------------------------------------------------------------
[ Tab from: http://www.guitartabs.cc/tabs/r/rufio/in_my_eyes_tab_ver_5.html ]
(not sure how many times you should do this)
e-------------------------------------------------------
b--------3h6-3------------------------------------------
g-3pm-3pm-----------------------------------------------
d-------------------------------------------------------
a-------------------------------------------------------
e-------------------------------------------------------


(3x)
e-------------------------------------------------
b-3-3-1-1-1---1-1-1-3-3-------3--------3---------3
g----------2-2---------3pm-3pm--3pm-3pm--3pm-3pm--
d-------------------------------------------------
a-------------------------------------------------
e-------------------------------------------------

e--------------------------------------------
b-4-4-4-4-4-4-4-4-4-4-4----------------------
g----------------------5-5-5-5-5-5-5-5-5-5-5-
d--------------------------------------------
a--------------------------------------------
e--------------------------------------------


4th part
(listen for strumming for (3) and (2)
                          (5)     (3)
e--------------------------------------------
b------------6--------------------6----------
g-3---2-----3-3-5-3-2--3---2-----3-3-5-3-2---
d-5---3----------------5---3-----------------
a--------------------------------------------
e--------------------------------------------

5th part   (2x)
e--------------------------------------------
b--------------6----------------------6------
g-3~--3-3--2~-3-3-5-3-2--3~--3-3--2~-3-3-5-3-
d-5~--5-5--3~------------5~--5-5--3~--------3
a--------------------------------------------
e--------------------------------------------


e-----------------------------------------
b----6-4-3----6-4-3----6-4-3-1-3-4-6-8-10-
g-3-3------5-5------3-3-------------------
d-----------------------------------------
a-----------------------------------------
e-----------------------------------------

solo      (3x)
e-10---------11---------10----10---13-11-10
b---11pm-11pm--11pm-11pm--11pm--11---------
g------------------------------------------
d------------------------------------------
a------------------------------------------
e------------------------------------------

e----------------------------------------------------
b-11/13-11-10-11--10pm-10-10pm-10-13-11-10--10--11-10
g-----------------11pm----11pm------------11--11-----
d----------------------------------------------------
a----------------------------------------------------
e----------------------------------------------------

e----------------------------------------------------
b-10pm-10-10pm-10-13-11-10---------------------------
g-11pm----11pm------------11/13-11-10-11-------------
d----------------------------------------------------
a----------------------------------------------------
e----------------------------------------------------

e----------------------------------------------------
b-10pm-10-10pm-10-13-11-10--10--11-10----------------
g-11pm----11pm------------11--11---------------------
d----------------------------------------------------
a----------------------------------------------------
e----------------------------------------------------


e----------------------------------------------------
b-10pm-10-10pm-10-13-11-10---------------------------
g-11pm----11pm------------11/13-11-10-11-------------
d----------------------------------------------------
a----------------------------------------------------
e----------------------------------------------------

e-10--11-10-------
b---11------11/0--
g-----------------
d-----------------
a-----------------
e-----------------
Comments