Rufio - In My Eyes Chords & Tabs

 

In My Eyes Chords & Tabs

Rufio Chords & Tabs

Version: 3 Type: Tab 0 ratings
1 star 2 stars 3 stars 4 stars 5 stars
comments

In My Eyes Tab

   
-[Rufio]- -[in my eyes]-
Tabbed By:  Gary(gary@finaldesign.net)
Modifyed By: Wilder(fenderstrat_61@hotmail.com)

~   - let ring out
... - palm mute
h   - hammer on
/   - slide
p   - pull off
v   - vibrato
5x
5x  - mute after picking
3x


Intro:  "You're graceful..."
e|----------------------------------------------------------------------------|
B|----------------------------------------------------------------------------|
G|8~---------------------------8~---------------------------------------------|
D|x~---5~---8~-----------------8~---5~---8~------8-----8-----8-----8-5--------|
A|6~---5~---8~----8-----8------6~---5~---8~--8-8-8-8-8-8-8-8-8-8-8-8-5--------|
E|-----3~---5~--6---6-5---5---------3~---5~--6-6-6-6-6-6-5-5-5-5-5-5-3--------|
                                             . .   . .   . .   . .
Intro Cont'd:  (2x)
e|-----------------------------------------------------------13-11-10----|
B|-----------------------------------------------8-10-11--11-------------|
G|--10-8-7----------10-8-7------10-8-7----7-8-10-------------------------|
D|---------8/10--10--------8--8--------10--------------------------------|
A|-----------------------------------------------------------------------|
E|-----------------------------------------------------------------------|

Intro Cont'd:
e|---------13-11-10--------13-11-10--------------------------------------|
B|11/13-13----------11--11----------11/13-11-10-11-10/-------------------|
G|-----------------------------------------------------------------------|
D|-----------------------------------------------------------------------|
A|-----------------------------------------------------------------------|
E|-----------------------------------------------------------------------|

Verse:  (2x) "Another day left..."
e|------------------------------------------------------------|
B|----7h10----7----7h10----7----7h10----7----7h10----7--------|
G|--8-------8----8-------8----8-------8----8-------8----------|
D|------------------------------------------------------------|
A|------------------------------------------------------------|
E|------------------------------------------------------------|
  
Verse Cont'd:
e|------------------------------------------------------------|
B|----7h10----7----7h10----7----5h7-----5----5h7-----5--------|
G|--8-------8----8-------8----7-------7----7-------7----------|
D|------------------------------------------------------------|
A|------------------------------------------------------------|
E|------------------------------------------------------------|

Pre-Chorus:  "I thought that..."  (3x)
e|------------------------------------------------------------|
B|------------------------------------------------------------|
G|------------------------------------------------------------|
D|5-5-5-5-5-8-8-8-8-8-8-8-8-8-8-8-8-8-8-8-8-8-----------------|
A|5-5-5-5-5-8-8-8-8-8-8-8-8-8-8-8-8-8-8-8-8-8-----------------|
E|3-3-3-3-3-5-5-5-5-5-6-6-6-6-6-6-6-6-6-6-6-6-----------------|
                            . .   . .   . .

Pre Chorus Cont'd:
e|------------------------------------------------------------|
B|------------------------------------------------------------|
G|8-8-8-8-8-8-8-8---------------------------------------------|
D|8-8-8-8-8-8-8-8-3-3-3-3-3-3-3-3-----------------------------|
A|6-6-6-6-6-6-6-6-3-3-3-3-3-3-3-3-----------------------------|
E|----------------1-1-1-1-1-1-1-1-----------------------------|

Chorus:  "You're graceful..."
e|---------------------------------------------------------------------------|
B|---------------------------------------------------------------------------|
G|8-8-8-8-8-8-8-8------------------------------------------------------------|
D|8-8-8-8-8-8-8-8-5-5-5-5-5-5-5-5-8-8-8-8-8-8-8-8-8-8-8-8-8-8-8-8-8-8-8-8----|
A|6-6-6-6-6-6-6-6-5-5-5-5-5-5-5-5-8-8-8-8-8-8-8-8-8-8-8-8-8-8-8-8-8-8-8-8----|
E|----------------3-3-3-3-3-3-3-3-5-5-5-5-5-5-5-5-6-6-6-6-6-6-5-5-5-5-5-5----|
                                                  . .   . .   . .   . .

Chorus Cont'd:  "You're lovely..."
e|---------------------------------------------------------------------------|
B|---------------------------------------------------------------------------|
G|8-8-8-8-8-8-8-8---------------------------------------------8~-------------|
D|8-8-8-8-8-8-8-8-5-5-5-5-5-5-5-5-8-8-8-8-8-8-8-8-------------8~-------------|
A|6-6-6-6-6-6-6-6-5-5-5-5-5-5-5-5-8-8-8-8-8-8-8-8---8-----8---6~-------------|
E|----------------3-3-3-3-3-3-3-3-5-5-5-5-5-5-5-5-6---6-5---5----------------|

Interlude:
e|---------------------------------------------------------------------------|
B|---------------------------------------------------------------------------|
G|-----10-8-7----------10-8-7------10-8-7------------------------------------|
D|-8-8--------8/10--10--------8--8--------8/10-8-7-8-7-5/--------------------|
A|---------------------------------------------------------------------------|
E|---------------------------------------------------------------------------|

*pickslide*
[ Tab from: http://www.guitartabs.cc/tabs/r/rufio/in_my_eyes_tab_ver_3.html ]
Verse:  "you say that its alright..."
e|------------------------------------------------------------|
B|----7h10----7----7h10----7----7h10----7----7h10----7--------|
G|--8-------8----8-------8----8-------8----8-------8----------|
D|------------------------------------------------------------|
A|------------------------------------------------------------|
E|------------------------------------------------------------|
  
Verse Cont'd:
e|------------------------------------------------------------|
B|----7h10----7----7h10----7----5h7-----5----5h7-----5--------|
G|--8-------8----8-------8----7-------7----7-------7----------|
D|------------------------------------------------------------|
A|------------------------------------------------------------|
E|------------------------------------------------------------|

Pre-Chorus:  "I thought that..."  (3x)
e|------------------------------------------------------------|
B|------------------------------------------------------------|
G|------------------------------------------------------------|
D|5-5-5-5-5-8-8-8-8-8-8-8-8-8-8-8-8-8-8-8-8-8-----------------|
A|5-5-5-5-5-8-8-8-8-8-8-8-8-8-8-8-8-8-8-8-8-8-----------------|
E|3-3-3-3-3-5-5-5-5-5-6-6-6-6-6-6-6-6-6-6-6-6-----------------|
                            . .   . .   . .

Pre Chorus Cont'd:
e|------------------------------------------------------------|
B|------------------------------------------------------------|
G|8-8-8-8-8-8-8-8---------------------------------------------|
D|8-8-8-8-8-8-8-8-3-3-3-3-3-3-3-3-----------------------------|
A|6-6-6-6-6-6-6-6-3-3-3-3-3-3-3-3-----------------------------|
E|----------------1-1-1-1-1-1-1-1-----------------------------|

2nd Chorus:  "You're graceful..."
e|---------------------------------------------------------------------------|
B|---------------------------------------------------------------------------|
G|8-8-8-8-8-8-8-8------------------------------------------------------------|
D|8-8-8-8-8-8-8-8-5-5-5-5-5-5-5-5-8-8-8-8-8-8-8-8-8-8-8-8-8-8-8-8-8-8-8-8----|
A|6-6-6-6-6-6-6-6-5-5-5-5-5-5-5-5-8-8-8-8-8-8-8-8-8-8-8-8-8-8-8-8-8-8-8-8----|
E|----------------3-3-3-3-3-3-3-3-5-5-5-5-5-5-5-5-6-6-6-6-6-6-5-5-5-5-5-5----|
                                                  . .   . .   . .   . .

2nd Chorus Cont'd:  "You're lovely..."
e|---------------------------------------------------------------------------|
B|---------------------------------------------------------------------------|
G|8-8-8-8-8-8-8-8---------------------------------------------8~-------------|
D|8-8-8-8-8-8-8-8-5-5-5-5-5-5-5-5-8-8-8-8-8-8-8-8-------------x~---5-5x---8~-|
A|6-6-6-6-6-6-6-6-5-5-5-5-5-5-5-5-8-8-8-8-8-8-8-8---8-----8---6~---5-5x---8~-|
E|----------------3-3-3-3-3-3-3-3-5-5-5-5-5-5-5-5-6---6-5---5------3-3x---5~-|

2nd Chorus Cont'd:
e|---------------------------------------------------------------------------|
B|---------------------------------------------------------------------------|
G|-------------8~------------------------------------------------------------|
D|-------------x~---5-5x---8~------------------------------------------------|
A|--8-----8----6~---5-5x---8~-----8------------------------------------------|
E|6---6-5---5-------3-3x---5~---6---6-5x-------------------------------------|

Outro:
e|--------------------------------------------------------10-------11--------|
B|---------------------------------------------------8-10----11-11----11-11--|
G|------10-8-7----------10-8-7------10-8-7----7-8-10-------------------------|
D|-8--8--------8/10--10--------8--8--------10--------------------------------|
A|---------------------------------------------------------------------------|
E|---------------------------------------------------------------------------|
                                                             .  .     .  .

Outro Cont'd:
e|10-------10-------13p11p10-10-------11-------10-------10-------13p11p10----|
B|---11-11----11-11-------------11-11----11-11----11-11----11-11-------------|
G|---------------------------------------------------------------------------|
D|---------------------------------------------------------------------------|
A|---------------------------------------------------------------------------|
E|---------------------------------------------------------------------------|
     .  .    .  .             .  .    .  .        .  .     .  .

Outro Cont'd:
e|10-------11-------10-------10-------13p11p10------------------13-11-10-----|
B|---11-11----11-11----11-11----11-11----------13-11-10-11---11----------11--|
G|---------------------------------------------------------------------------|
D|---------------------------------------------------------------------------|
A|---------------------------------------------------------------------------|
E|---------------------------------------------------------------------------|
     .  .    .  .    .  .        .  .

Outro Cont'd:
e|-10h11p10-----13-11-10---------------------13-11-10------10h11p10-----13-11|
B|-----------11----------11/13-11-10-11---11----------11-------------11------|
G|---------------------------------------------------------------------------|
D|---------------------------------------------------------------------------|
A|---------------------------------------------------------------------------|
E|---------------------------------------------------------------------------|

Outro Cont'd:
e|10-------------------------------------------------------------------------|
B|---11/13-11-10-11-11v----11/-----------------------------------------------|
G|---------------------------------------------------------------------------|
D|---------------------------------------------------------------------------|
A|---------------------------------------------------------------------------|
E|---------------------------------------------------------------------------|
Comments