Rufio - Goodbye Chords & Tabs

 

Goodbye Chords & Tabs

Rufio Chords & Tabs

Version: 1 Type: Tab 0 ratings
1 star 2 stars 3 stars 4 stars 5 stars
comments

Goodbye Tab

   
-------------------------------------------------------------------------------
			GOODBYE - RUFIO
-------------------------------------------------------------------------------
Tabbed by: coTTon BaLL

Email:lp_custom_mb@hotmail.com

Tuning:standard
	
Intro : soft chorus	(Guitar one) 
« ... goodbye my....
e|---------------------------------------------------------------------------|
B|---------------------------------------------------------------------------|
G|---------------------------------------------7-----------------------------|
D|----------10-----------10-----------------5----5----8------8-------8-------|
A|-------8-----8------8------8-----------5---------------6-----6/8------8----|
E|----6------------6------------6--------------------------------------------|

e|---------------------------------------------------------------------------|(x2)
B|---------------------------------------------------------------------------|
G|------------10---------10--------10----------------10--------10-----10-----|
D|--------8-------8----------8---------8----------8------8--------8------8---|
A|---10--------------10--------10--------10---8------------10-------8------8-|
E|---------------------------------------------------------------------------|
Second time end with :
e|---------------------------------------------------------------------------|
B|---------------------------------------------------------------------------|
G|------------10----------10---------10-----------10—let ring----------------|
D|--------8-------8-----------8----------8---------8-------------------------|
A|----6--------------6-----------6----------6------6-------------------------|
E|---------------------------------------------------------------------------|
	 Chorus:with drums	      
			
e|---------------------------------------------------------------------------|
B|-strumming not shown-------------------------------------------------------|(x2)
G|--------------------------------x-8---x-10---------------------------------|
D|----8-8-8-8----------8-8-8-8----x-x---x-x-----12-12-12----10-10-10---------|
A|----8-8-8-8----------5-5-5-5----x-6---x-8-----10-10-10----8--8--8----------|
E|----6-6-6-6----------------------------------------------------------------|
	End with :
e|---------------------------------------------------------------------------|
B|---------------------------------------------------------------------------|
G|---8-8-8-8----10-10-10-10--------------------------------------------------|
D|---8-8-8-8----10-10-10-10-----------5-5-5-5---8-8-8-8----------------------|
A|---6-6-6-6----8--8--8--8------------5-5-5-5---8-8-8-8----------------------|
E|------------------------------------3-3-3-3---6-6-6-6----------------------|

e|---------------------------------------------------------------------------|
B|---------------------------------------------------------------------------|
G|--8x-8x-x8-x8-x8-x8-x8-x8-----10x-10x-10x-10x------------------------------|
D|--8x-8x-x8-x8-x8-x8-x8-x8-----10x-10x-10x-10x------8-8---7h8p7-------------|
A|--6x-6x-x6-x6-x6-x6-x6-x6-----8-x—8-x—8-x-8-x-------------------8~---------|
E|---------------------------------------------------------------------------|
	Verse or whatever it is :mostly bass and drums, just a few octaves and a
pickslide. .
e|---------------------------------------------------------------------------|
B|---------------------------------------------------------------------------|
G|----/--10--10-----8---7----------------------3-(x4)---5-(x4)-7-(x4)-10-(x4)|
D|----/--x---x------x---x----------------------x--------x------x------x------|
A|----/--8---8------6---5------pickslide-------1--------3------5------8------|
E|---------------------------------------------------------------------------|



e|---------------------------------------------------------------------------|
B|---------------------------------------------------------------------------|
G|--8-(x8)------10-(8x)------------------------------------------------------|
D|--x-----------x------------------------------------------------------------|
A|--6-----------8------------------------------------------------------------|
E|---------------------------------------------------------------------------|

Repeat chorus, then breakdown : (the lead part here is hard to hear and hard to
figure out, so I improvised a bit, if you dont like it the just strum D-8  instead.)                 
                                                               A-8
						      E-6
e|---------------------------------------------------------------------------|
B|---------------------------------------------------------------------------|
G|-----------------------------------------------------10-10--88--77—10-10---|
D|----5--5---5-5----3--3---3-3--------------88—-10-10------------------------|
A|----5--5---5-5----3--3---3-3----------88-----------------------------------|
E|----3--3---3-3----1--1---1-1-------66--------------------------------------|
     ......         ....            ......................................


e|---------------------------------------------------------------------------|
B|---------------------------------------------------------------------------|
G|-----------------------------------------10-10---------10-10---------10----|
D|--5--5---5-5-----3--3----3-3-------------8--8----------8--8----------8-----|
A|--5--5---5-5-----3--3----3-3-------6-6------------6-6----------6-6---------|
E|--3--3---3-3-----1--1----1-1-----------------------------------------------|
    ....           ....              . .            . .          . .


[ Tab from: http://www.guitartabs.cc/tabs/r/rufio/goodbye_tab.html ]
e|---------------------------------------------------------------------------|
B|---------------------------------------------------------------------------|
G|-----------------------------------------------------10-10--88--77—10-10---|
D|----5--5---5-5----3--3---3-3--------------88—-10-10------------------------|
A|----5--5---5-5----3--3---3-3----------88-----------------------------------|
E|----3--3---3-3----1--1---1-1-------66--------------------------------------|
     ......         ....            ......................................


outro :
e|---------------------------------------------------------------------------|
B|---------------------------------------------------------------------------|
G|------------------------------3--/--5--\--3--------------------------------|
D|---5~---------------3~--------x-----x-----x--------------------------------|
A|---5-~--------------3~--------1--/--3--\--1--------------------------------|
E|---3~---------------1~-----------------------------------------------------|



Guitar two :

Comes in with drums which is the chorus
e|---------------------------------------------------------------------------|
B|----------------11---------------11------------------11--------------------|
G|-----------10------10-------10-------10----------10------10----------------|
D|-------8----------------8-------------------0------------------------------|
A|-------------------------------------(open>)-------------------------------|
E|---------------------------------------------------------------------------|




e|-----------------------------------13-13-----------------------13-13-------|
B|-----------------------------11-11-------11-11-----------11-11-------11-11-|
G|---------------------12-12------------------------12-12--------------------|
D|------8------10------------------------------------------------------------|
A|---------------------------------------------------------------------------|
E|--6--------8---------------------------------------------------------------|



e|------------------13-13--------------------------13-13---------------------|
B|----------11-11----------11-11------------11-11--------11-11---------------|
G|---10-10---------------------------10-10-----------------------------------|
D|---------------------------------------------------------------------------|
A|---------------------------------------------------------------------------|
E|---------------------------------------------------------------------------|            

e|----strumming not shown----------------------------------------------------|
B|---------------------------------------------------------------------------|
G|---8-8-8-8-----10-10-10-10-------12-(12x)---15-(12x)-----------------------|
D|---8-8-8-8-----10-10-10-10--------x----------x-----------------------------|
A|---6-6-6-6-----8--8--8--8--------10---------13-----------------------------|
E|---------------------------------------------------------------------------|



e|---------------------------------------------------------------------------|
B|---------------------------------------------------------------------------|
G|---8x-8x-8x-8x-8x-8x-8x-8x-------------------------------------------------|
D|---8x-8x-8x-8x-8x-8x-8x-8x--------8-8-8-8-8-8—7h8p7------------------------|
A|---6x-6x-6x-6x-6x-6x-6x-6x---------------------------8~--------------------|
E|---------------------------------------------------------------------------|
                                    ...........


verse, breakdown or whatever it is : only guitar one at the beginning then jump in with
e|---------------------------------------------------------------------------|
B|---------------------------------------------------------------------------|
G|--8-(4x)--10-(4x)--12-(4x)--15-(4x)------8-(8x)---10-(8x)------------------|
D|--x-------x---------x--------x-----------x--------x------------------------|
A|--6-------8--------10-------13-----------6--------8------------------------|
E|---------------------------------------------------------------------------|


Repeat chorus, then breakdown :
e|---------------------------------------------------------------------------|
B|---------------------------------------------------------------------------|
G|---------------------------------------------------------------------------|
D|--5--5--5-5----3--3--3-3-----8-8-8-8---------5--5--5-5----3--3--3-3--------|
A|--5--5--5-5----3--3--3-3-----8-8-8-8---------5--5--5-5----3--3--3-3--------|
E|--3--3--3-3----1--1--1-1-----6-6-6-6---------3--3--3-3----1--1--1-1--------|
    ....         ....                          ....         ....


e|---------------------------------------------------------------------------|
B|---------------------------------------------------------------------------|
G|------------8-8----------8-8--------8--------------------------------------|
D|------------8-8----------8-8--------8----5--5--5-5---3--3--3-3---8-8-8-8---|
A|-----6-6-----------6-6---------6-6-------5--5--5-5---3--3--3-3---8-8-8-8---|
E|-----------------------------------------3--3--3-3---1--1--1-1---6-6-6-6---|
       . .           . .         . .       ....        ....

outro :
e|---------------------------------------------------------------------------|
B|---------------------------------------------------------------------------|
G|---10-/-12-/--15-\--12-----8-/--10-/--12-\-10-----7-/--10-\--8~------------|
D|---x-----x-----x-----x-----x----x------x---x------x----x-----x-------------|
A|---8-/--10-/--13-\--10-----6-/--8--/--10-\-8------5-/--8--\--6~------------|
E|---------------------------------------------------------------------------|









| /  slide up
| \  slide down
| h  hammer-on
| p  pull-off
| ~  vibrato
| +  harmonic
| x  Mute note
===============================================================================
Comments