Rufio - Face The Truth Chords & Tabs

 

Face The Truth Chords & Tabs

Rufio Chords & Tabs

Version: 2 Type: Tab 0 ratings
1 star 2 stars 3 stars 4 stars 5 stars
comments

Face The Truth Tab

FACE THE TRUTH - Rufio
By:  Gary(TheAtaris07@aol.com)

/ - slide
PM - palm mute
h - hammer on
~ - let ring out
? - I don't know what's going on

GUITAR 1'S PARTS:
Intro:  Guitar 1  (2x)
e|---------------------------------------------------------------------------|
B|-------------------------------------------------0-------------------------|
G|----0-----0-----0-------0-----0-----0-----0----0---0-----------------------|
D|--2-----0-----0-------0-----2-----0-----0----------------------------------|
A|------2-----3-----3/5-----------2-----3-----5------------------------------|
E|0-------------------------0------------------------------------------------|

Verse 1:  Guitar 1  "You take a look around..."  (4x)
e|--------------3-2-2h3------------------------------------------------------|
B|---------------------------------------------------------------------------|
G|----0-----0----------------------------------------------------------------|
D|--0-----0------------------------------------------------------------------|
A|------------3--------------------------------------------------------------|
E|2-----3--------------------------------------------------------------------|

Verse 2:  Guitar 1  "It's been so long..."  (4x)   End:  Ring out
e|----------------------------------------7-------|--------------------------|
B|----8-----8-----8-----8-----8-----8-------8---8-|----8~--------------------|
G|--7---7-------7---7-------7---7-------7-----7---|----7~--------------------|
D|------------------------5-------5---4-----------|----7~--------------------|
A|7-------7---------------------------------------|----5~--------------------|
E|------------8-------8---------------------------|--------------------------|

Repeat Intro

Repeat Verse 1

Chorus 1:  Guitar 1  "So you wait to say goodbye..."  (4x)
e|---------------------------------------------------------------------------|
B|---------------------------------------------------------------------------|
G|----7-5-4------------------------------------------------------------------|
D|5~--------5~--4-5-7--------------------------------------------------------|
A|---------------------------------------------------------------------------|
E|---------------------------------------------------------------------------|

Repeat Intro

Repeat Verse 1

Chorus 2:  Guitar 1  (Play and then repeat Chorus 1)
e|-3-2-----|
B|-----3---|
G|---------|
D|---------|
A|---------|
E|---------|

Bridge:  Guitar 1  (4x)               This little thing at end:
e|----------------------------------|----------------------------------------|
B|----------------------------------|----------------------------------------|
G|--------4-4-4-4-5-5-5-5-7-7-7-7-7-|----------------------------------------|
D|2-2-2-2-4-4-4-4-5-5-5-5-7-7-7-7-7-|----5-5-4-5-----------------------------|
A|2-2-2-2-2-2-2-2-3-3-3-3-5-5-5-5-5-|--5-------------------------------------|
E|0-0-0-0---------------------------|----------------------------------------|
    PM...   .....   .....   .....

Bridge Cont'd:  Guitar 1
e|---------------------------------------------------------------------------|
B|----------------8-7-7h8----------------------------------------------------|
G|----7-----7-----------------7-----7-----9-9-9-9-9-9-9-9-----7-----7--------|
D|4-5---4-5---4-5---------4-5---4-5---4-5-x-x-x-x-x-x-x-x-4-5---4-5---4-5----|
A|----------------------------------------7-7-7-7-7-7-7-7--------------------|
E|---------------------------------------------------------------------------|

Bridge Cont'd:  Guitar 1
e|---------------------------------------------------------------------------|
B|8-7-7h8--------------------------------------------------------------------|
G|------------7-----7-----7-----5-----4h5------------------------------------|
D|--------4-5---4-5---4-5---4-4---4-4----------------------------------------|
A|---------------------------------------------------------------------------|
E|---------------------------------------------------------------------------|
                            ...   ...

Bridge Cont'd:  Guitar 1
e|---------------------------------------------------------------------------|
B|----------------8-7-7h8----------------------------------------------------|
G|----7-----7-----------------7-----7-----9-9-9-9-9-9-9-9-----7-----7--------|
D|4-5---4-5---4-5---------4-5---4-5---4-5-x-x-x-x-x-x-x-x-4-5---4-5---4-5----|
A|----------------------------------------7-7-7-7-7-7-7-7--------------------|
E|---------------------------------------------------------------------------|
[ Tab from: http://www.guitartabs.cc/tabs/r/rufio/face_the_truth_tab_ver_2.html ]
Bridge Cont'd:  Guitar 1
e|---------------------------------------------------------------------------|
B|8-7-7h8--------------------------------------------------------------------|
G|------------7-----7-----7-----5-----4h5------------------------------------|
D|--------4-5---4-5---4-5---4-4---4-4----------------------------------------|
A|---------------------------------------------------------------------------|
E|---------------------------------------------------------------------------|
                            ...   ...

Repeat Chorus 1

Outro:  Guitar 1
e|------?????-----3~---------|
B|------?????-----3~---------|
G|------?????-----0~---------|
D|------?????-----2~---------|
A|------?????-----2~---------|
E|------?????-----0~---------|

GUITAR 2'S PARTS:

Intro:  Only Guitar 1

Verse 1:  Only Guitar 1

Verse 2:  Very End
e|--------|
B|--------|
G|--------|
D|--2~----|
A|--2~----|
E|--0~----|

Repeat Intro:  Only Guitar 1

Chorus 1:  Guitar 2  "So you wait to say..."
e|---------------------------------------------------------------------------|
B|---------------------------------------------------------------------------|
G|----------------5-5-5-5-5-5-5-5--------------------------------------------|
D|2-2-2-2-2-2-2-2-5-5-5-5-5-5-5-5-5-5-5-5-5-5-5-5-5-5-5-5-5-5-5-5------------|
A|2-2-2-2-2-2-2-2-3-3-3-3-3-3-3-3-5-5-5-5-5-5-5-5-5-5-5-5-5-5-5-5------------|
E|0-0-0-0-0-0-0-0-----------------3-3-3-3-3-3-3-3-2-2-2-2-2-2-2-2------------|
                                                  ...............

Chorus 1 Cont'd:  Guitar 2
e|---------------------------------------------------------------------------|
B|---------------------------------------------------------------------------|
G|----------------5-5-5-5-5-5-5-5-----------------7-7-7-7-7-7-7-7------------|
D|2-2-2-2-2-2-2-2-5-5-5-5-5-5-5-5-5-5-5-5-5-5-5-5-7-7-7-7-7-7-7-7------------|
A|2-2-2-2-2-2-2-2-3-3-3-3-3-3-3-3-5-5-5-5-5-5-5-5-5-5-5-5-5-5-5-5------------|
E|0-0-0-0-0-0-0-0-----------------3-3-3-3-3-3-3-3----------------------------|

Chorus 1 Cont'd:  Guitar 2
e|---------------------------------------------------------------------------|
B|---------------------------------------------------------------------------|
G|----------------5-5-5-5-5-5-5-5--------------------------------------------|
D|2-2-2-2-2-2-2-2-5-5-5-5-5-5-5-5-5-5-5-5-5-5-5-5-5-5-5-5-5-5-5-5------------|
A|2-2-2-2-2-2-2-2-3-3-3-3-3-3-3-3-5-5-5-5-5-5-5-5-5-5-5-5-5-5-5-5------------|
E|0-0-0-0-0-0-0-0-----------------3-3-3-3-3-3-3-3-2-2-2-2-2-2-2-2------------|
                                                  ...............

Chorus 1 Cont'd:  Guitar 2
e|---------------------------------------------------------------------------|
B|---------------------------------------------------------------------------|
G|----------------5-5-5-5-5-5-5-5-----------------7~-------------------------|
D|2-2-2-2-2-2-2-2-5-5-5-5-5-5-5-5-5-5-5-5-5-5-5-5-7~-------------------------|
A|2-2-2-2-2-2-2-2-3-3-3-3-3-3-3-3-5-5-5-5-5-5-5-5-5~-------------------------|
E|0-0-0-0-0-0-0-0-----------------3-3-3-3-3-3-3-3----------------------------|

Repeat Intro:  Only Guitar 1

Repeat Chorus 1

Bridge:  Guitar 2  (4x)               This little thing at end:
e|----------------------------------|----------------------------------------|
B|----------------------------------|----------------------------------------|
G|--------4-4-4-4-5-5-5-5-7-7-7-7-7-|----------------------------------------|
D|2-2-2-2-4-4-4-4-5-5-5-5-7-7-7-7-7-|----5-5-4-5-----------------------------|
A|2-2-2-2-2-2-2-2-3-3-3-3-5-5-5-5-5-|--5-------------------------------------|
E|0-0-0-0---------------------------|----------------------------------------|
    PM...   .....   .....   .....

Bridge Cont'd:  Guitar 2  (All 2x)
e|---------------------------------------------------------------------------|
B|---------------------------------------------------------------------------|
G|----------------5-5-5-5-5-5-5-5-----------------9-9-9-9-9-9-9-9------------|
D|2-2-2-2-2-2-2-2-5-5-5-5-5-5-5-5-2-2-2-2-2-2-2-2-x-x-x-x-x-x-x-x------------|
A|2-2-2-2-2-2-2-2-3-3-3-3-3-3-3-3-2-2-2-2-2-2-2-2-7-7-7-7-7-7-7-7------------|
E|0-0-0-0-0-0-0-0-----------------0-0-0-0-0-0-0-0----------------------------|

Bridge Cont'd:  Guitar 2
e|---------------------------------------------------------------------------|
B|---------------------------------------------------------------------------|
G|----------------7-7-7-7-7-7-11-11-11-11-11-11------------------------------|
D|2-2-2-2-2-2-2-2-x-x-x-x-x-x--x--x--x--x--x--x------------------------------|
A|2-2-2-2-2-2-2-2-5-5-5-5-5-5--9--9--9--9--9--9------------------------------|
E|0-0-0-0-0-0-0-0------------------------------------------------------------|

Repeat Chorus 1

Enjoy.  This song is cool.  E-mail me questions and what not...maybe I'll do
Save the World next, we'll see.  (TheAtaris07@aol.com)
Comments