Rufio - Face The Truth Chords & Tabs

 

Face The Truth Chords & Tabs

Rufio Chords & Tabs

Version: 1 Type: Bass Tab 0 ratings
1 star 2 stars 3 stars 4 stars 5 stars
comments

Face The Truth Bass Tab

*****************************************
Face The Truth-Rufio
Perhaps, I suppose
TABBED by: Ac Abesamis
Bass tabs
*****************************************
*-let it ring
/-slide 
?-I kinda forgot
h-hammer
x-i think you know already

INTRO
G|---------------------------|
D|---------------------------|
A|---------------------------|
E|---0--?/?--0*--5--3-2-2-3--|

VERSE (4x)
G|------------|
D|------------|
A|---------3--|
E|---2--3-----|

It's been so long...
G|----------------------------------|
D|----------------------------------|
A|------3-----------------3-----5---|
E|---0-----3--2--3---0x0-----3------|

G|----------------------------------|
D|----------------------------------|
A|--------3-----------------3-----5*|
E|---0x0-----3--2--3---0x0-----3----|
-
G|-----| (this is the part where there is noise)
D|-----|
A|-----|
E|--0*--|

VERSE (4x)
[ Tab from: http://www.guitartabs.cc/tabs/r/rufio/face_the_truth_btab.html ]
CHORUS (2x)
G|-------------------------------------------------------------|
D|-------------------------------------------------------------|
A|-------333333------------------------333333-------555555-----|
E|--0-0----------3-3--2222--3333---0-0----------3-3------------|

AFTER CHORUS PART (4x)
G|-----------------|
D|---2-------------|
A|------2--3--5----|
E|-----------------|

VERSE (4x)
(on the last beat, break)

CHORUS (2x)

ADLIB (11x)
G|-----------------------|
D|---222-----------------|
A|--------222--333--555--|
E|-----------------------|

ADLIB (last one)
G|------------------------------------|
D|---222------------------------------|
A|--------222--33-3-33--555555555-----|
E|------------------------------------|

CHORUS (2x)

OUTRO
G|-------|
D|-------|
A|-------|
E|---0*--|

Dedicated to....
bRi_ange8, to nod'z the hunk, kuya seth, kuya julius, mac, tabong, VVSC, Granada
Sk8 crew, my band (BrEAKThROuGh) ala, paolo, mark and gino, my long tym luv,
Monique Francesca Monasterio.. lab yah!!!!! my family, god, jesus, holy spirit
and specialy satan! :) Lyf rokz!!!!

Questions? acba08@hotmail.com
Comments