Rufio - Dont Hate Me Chords & Tabs

 

Dont Hate Me Chords & Tabs

Rufio Chords & Tabs

Version: 1 Type: Tab 0 ratings
1 star 2 stars 3 stars 4 stars 5 stars
comments

Dont Hate Me Tab

... - palm mute
/ \ - slide
3x  - mute after strumming
h   - hammer on
p   - pull off
~   - let ring out
~x  - mute after the chord has rang out for a while

Guitar 1
Intro(x2)
e|-----------------------2p0---------------------------|
b|----------------------------4p2-0h2-0h2--------------|
g|-4-4-3-3----------4----------------------------------|
D|---------4---4-4----4--------------------------------|
A|-----------------------------------------------------|
E|-----------------------------------------------------|
   .............   

Intro Continued
e|---------------------------------------------------------------------------x-x-x-x-x-x|
b|---------------------------------------------------------------------------x-x-x-x-x-x|
g|-4-4-4-4-4-4-4-4-11-11-11-11-11-11-11-11--8-8-8-8-8-8-8-8--6-6-6-6-6-6-6-6-x-x-x-x-x-x|
D|-x-x-x-x-x-x-x-x--x--x--x--x--x--x--x--x--x-x-x-x-x-x-x-x--x-x-x-x-x-x-x-x-x-x-x-x-x-x|
A|-2-2-2-2-2-2-2-2--9--9--9--9--9--9--9--9--6-6-6-6-6-6-6-6--4-4-4-4-4-4-4-4-x-x-x-x-x-x|
E|--------------------------------------------------------------------------------------|

Intro Continued
e|-------------------------------------------------------------------------------------|
b|-------------------------------------------------------------------------------------|
g|-4-4-4-4-4-4-4-4-11-11-11-11-11-11-11-11--8-8-8-8-8-8-8-8----------------------------|
D|-x-x-x-x-x-x-x-x--x--x--x--x--x--x--x--x--x-x-x-x-x-x-x-x--4-4-4-4-4-4-4-4x----------|
A|-2-2-2-2-2-2-2-2--9--9--9--9--9--9--9--9--6-6-6-6-6-6-6-6--4-4-4-4-4-4-4-4x----------|
E|-----------------------------------------------------------2-2-2-2-2-2-2-2x----------|

Verse ("I remember when....."
e|-------------------------------------------------------|
b|-------------------------------------------------------|
g|-4~--11~---16~---16--15---4~--11~---16~---15~x---------|
D|-x----x-----x-----x---x---x----x-----x-----x~x---------|
A|-2~---9~---14~---14--13---2~---9~---14~---13~x---------|
E|-------------------------------------------------------|

Chorus ("All I want..")
e|---------------------------------------------------------------------------|
b|---------------------------------------------------------------------------|
g|------------------------------------------------------------4-4-4----------|
D|-2-2-2-2-2-2-2-2-2-2--4-4-4-4-4-4-4-4-4-4--6-6-6-6-6-6-6-6--4-4-4--4-4-4-4-|
A|-2-2-2-2-2-2-2-2-2-2--4-4-4-4-4-4-4-4-4-4--6-6-6-6-6-6-6-6--2-2-2--4-4-4-4-|
E|-0-0-0-0-0-0-0-0-0-0--2-2-2-2-2-2-2-2-2-2--4-4-4-4-4-4-4-4---------2-2-2-2-|

e|---------------------------------------------------------------------------|
b|---------------------------------------------------------------------------|
g|------------------------------------------------------------4-4-4----------|
D|-2-2-2-2-2-2-2-2-2-2--4-4-4-4-4-4-4-4-4-4--6-6-6-6-6-6-6-6--4-4-4--4-4-4-4-|
A|-2-2-2-2-2-2-2-2-2-2--4-4-4-4-4-4-4-4-4-4--6-6-6-6-6-6-6-6--2-2-2--4-4-4-4-|
E|-0-0-0-0-0-0-0-0-0-0--2-2-2-2-2-2-2-2-2-2--4-4-4-4-4-4-4-4---------2-2-2-2-|
     .......   .......    .......   .......
  
"My love is gone.."
e|-----------|
b|-----------|
g|-----------|
D|-2~--4~----|
A|-2~--4~----|
E|-0~--2~----|

2nd Verse
e|--------------------------------------------------------------------------|
b|------12-------12----12------12-------12----12------12-------12----12-----|
g|---11----11-11----11------11----11-11----11-------11---11-11----11--------|
D|-9----------------------9-----------------------9-------------------------|
A|--------------------------------------------------------------------------|
E|--------------------------------------------------------------------------|

e|-------------------------|
b|------11-------11----11--|
g|---11----11-11----11-----|
D|-9-----------------------|
A|-------------------------|
E|-------------------------|

2nd Chorus Part ("Now I see, you and me..")x2
e|-----------------------------------------------------2p0-------------------|
b|---------------------------------------------------------4p2-0h2-0h2-------|
g|-4-4-3-3---------4-4-3-3---------4-4-3-3---------4-------------------------|
D|---------4--4-4----------4--4-4----------4--4-4----4-----------------------|
A|---------------------------------------------------------------------------|
E|---------------------------------------------------------------------------|
  ..............   .............   .............

Repeat Chorus
Repeat Second Verse
End verse on:
e|-----------|
b|-11~-------|
g|-11~-------|
D|--9~-------|
A|-----------|
E|-----------|

Bridge
e|------------------------------------------------------------------------------------|
b|------------------------------------------------------------------------------------|
g|-4-4-4-4-4-4-4-4-4-11-11-11-11-11-11-11-11-11--8-8-8-8-8-8-8-8-8--6-6-6-6-6-6-6-6-6-|
D|-x-x-x-x-x-x-x-x-x--x--x--x--x--x--x--x--x--x--x-x-x-x-x-x-x-x-x--x-x-x-x-x-x-x-x-x-|
A|-2-2-2-2-2-2-2-2-2--9--9--9--9--9--9--9--9--9--6-6-6-6-6-6-6-6-6--4-4-4-4-4-4-4-4-4-|
E|------------------------------------------------------------------------------------|

e|-x-x-x-x-x-x------------------------------------------------------------------------------------|
b|-x-x-x-x-x-x------------------------------------------------------------------------------------|
g|-x-x-x-x-x-x-4-4-4-4-4-4-4-4-4-11-11-11-11-11-11-11-11-11--8-8-8-8-8-8-8-8-8--6-6-6-6-6-6-6-6-6-|
D|-x-x-x-x-x-x-x-x-x-x-x-x-x-x-x--x--x--x--x--x--x--x--x--x--x-x-x-x-x-x-x-x-x--x-x-x-x-x-x-x-x-x-|
A|-x-x-x-x-x-x-2-2-2-2-2-2-2-2-2--9--9--9--9--9--9--9--9--9--6-6-6-6-6-6-6-6-6--4-4-4-4-4-4-4-4-4-|
E|-x-x-x-x-x-x------------------------------------------------------------------------------------|

Bridge Continued ("So don't hate me.....")
e|--------------------|
b|--------------------|
g|-8----6----4~-------|
D|-x----x----x--------|
A|-6----4----2~-------|
E|--------------------|

Interlude("Don't Hate me......")
e|-x-x---------------x-x------x-x-----x-x------x-x-----x-x-----x-x-----|
b|-x-x---------------x-x------x-x-----x-x-----x-x------x-x-----x-x-----|
g|-x-x-13~-11--9--8--x-x-13~--x-x-15~-x-x-16~-x-x-13~--x-x-15~-x-x-16~-|
D|-x-x--x---x--x--x--x-x--x---x-x--x--x-x--x--x-x--x---x-x--x--x-x--x--|
A|-x-x-11~--9--7--6--x-x-11~--x-x-13~-x-x-14~-x-x-11~--x-x-13~-x-x-14~-|
E|-x-x---------------x-x------x-x-----x-x-----x-x------x-x-----x-x-----|

Ahhhhhhhhhhhhhhhhhhhhhhhhhhhhhh....
Repeat Chorus

Outro (Wait for the first three before playing)
e|-----------------------------------------------2p0-------------|
b|-----------------0h2-0h2---------------------------4p2-0h2-0h2-|
g|-------------4p3----------4-4-3-3---------4--------------------|
D|----------------------------------4---4-4----4-----------------|
A|---------------------------------------------------------------|
E|---------------------------------------------------------------|
                            .............
[ Tab from: http://www.guitartabs.cc/tabs/r/rufio/dont_hate_me_tab.html ]
Outro Continued
e|------------------|
b|-0h2-0h2-4~~~~~---|
g|------------------|
D|------------------|
A|------------------|
E|------------------|
  
GUITAR 2'S PARTS:
--------------
 
Intro
e|----------------------------------------------------------------------------|
b|----------------------------------------------------------------------------|
g|---------------------------------------------------------------4p3----6---6-|
D|-6-6-6-6-6x--2-2--4-4-4-4-4x--4-4--6-6-6-6-6x--2-2--4-4-4-4-4-------4---4---|
A|-6-6-6-6-6x--2-2--2-2-2-2-2x--4-4--6-6-6-6-6x--2-2--2-2-2-2-2---------------|
E|-4-4-4-4-4x--0-0--------------2-2--4-4-4-4-4x--0-0--------------------------|
              ..               ..               ..
 
Intro Continued
e|----------------------------------------------------------------------------|
b|----------------------------------------------------------------------------|
g|-8-8-8-8-8-8-8-8-9-9-9-9-11-11-11-11-11-11-11-11-11-11-11-11-6-6-6-6-6-6----|
D|-x-x-x-x-x-x-x-x-x-x-x-x--x--x--x--x--x--x--x--x--x--x--x--x-x-x-x-x-x-x----|
A|-6-6-6-6-6-6-6-6-7-7-7-7--9--9--9--9--9--9--9--9--9--9--9--9-4-4-4-4-4-4----|
E|----------------------------------------------------------------------------|
 
Intro Continued Again
e|--------------------------------------------------------------------------------------|
b|--------------------------------------------------------------------------------------|
g|---------------------8-8-8-8-9-9-9-9-11-11-11-11-11-11-11-11-11-11-11-11--------------|
D|-------------6-6-6-6-x-x-x-x-x-x-x-x--x--x--x--x--x--x--x--x--x--x--x--x-4-4-4-4-4-4x-|
A|-----2p1-----x-x-x-x-6-6-6-6-7-7-7-7--9--9--9--9--9--9--9--9--9--9--9--9-4-4-4-4-4-4x-|
E|-2h4-----4p2-4-4-4-4-----------------------------------------------------2-2-2-2-2-2x-|
 
Verse ( "I remember when...")
e|---------------------------------------------------------------------------|
b|---------------------------------------------------------------------------|
g|---------------------------------------------------------------------------|
D|-6~--9~--9~--4--4----6~--2~--4~--------------------------------------------|
A|-6~--6~--7~--2--4----6~--2~--2~--4~x---------------------------------------|
E|-4~-------------2----4~--0~------2~x---------------------------------------|
 
Chorus ("All I want...")
e|--------------------------------------------------------------------------|
b|--------------------------------------------------------------------------|
g|---------------------------------------------------------3----------------|
D|-2-2-2-2-2-2-2-2-2-2--4-4-4-4-4-4-4-4-4-4------4-----------4---4----------|
A|-2-2-2-2-2-2-2-2-2-2--4-4-4-4-4-4-4-4-4-4----2---2---2-2-----2------------|
E|-0-0-0-0-0-0-0-0-0-0--2-2-2-2-2-2-2-2-2-2--4-------4----------------------|

e|--------------------------------------------------------------------------|
b|--------------------------------------------------------------------------|
g|-----------------------------------------------------------3--------------|
D|-2-2-2-2-2-2-2-2-2-2-2--4-4-4-4-4-4-4-4-4-4------4-----------4---4--------|
A|-2-2-2-2-2-2-2-2-2-2-2--4-4-4-4-4-4-4-4-4-4----2---2---2-2-----2----------|
E|-0-0-0-0-0-0-0-0-0-0-0--2-2-2-2-2-2-2-2-2-2--4-------4--------------------|
     .......   .......      .......   .....
 
"My love is gone.."
e|-----------|
b|-----------|
g|-----------|
D|-2~--4~----|
A|-2~--4~----|
E|-0~--2~----|
 
 Verse (x2)
e|------------------------------------------------------------------------------|
b|------------------------------------------------------------------------------|
g|----4-----4--4-----4-----4--4-----4-----4--4------3-----3--3------------------|
D|--4--4--4--4-----4--4--4--4-----4--4--4--4------4--4--4--4--------------------|
A|------------------------------2-----------------------------------------------|
E|4-------------0-------------------------------2-------------------------------|
 
2nd Chorus Part ("Now I see, you and me..") x2
e|----------------------------------------------------------------------------|
b|----------------------------------------------------------------------------|
g|---------------------------------------------------------------4p3----6---6-|
D|-6-6-6-6-6x--2-2--4-4-4-4-4x--4-4--6-6-6-6-6x--2-2--4-4-4-4-4-------4---4---|
A|-6-6-6-6-6x--2-2--2-2-2-2-2x--4-4--6-6-6-6-6x--2-2--2-2-2-2-2---------------|
E|-4-4-4-4-4x--0-0--------------2-2--4-4-4-4-4x--0-0--------------------------|
              ..               ..               ..
 
On the second time, replace the little riff at the end with:
e|---------------|
b|---------------|
g|---------------|
D|-4-4-4-4-4-----|
A|-4-4-4-4-4-----|
E|-2-2-2-2-2-----|
 
Chorus ("All I want...")
e|--------------------------------------------------------------------------|
b|--------------------------------------------------------------------------|
g|---------------------------------------------------------3----------------|
D|-2-2-2-2-2-2-2-2-2-2--4-4-4-4-4-4-4-4-4-4------4-----------4---4----------|
A|-2-2-2-2-2-2-2-2-2-2--4-4-4-4-4-4-4-4-4-4----2---2---2-2-----2------------|
E|-0-0-0-0-0-0-0-0-0-0--2-2-2-2-2-2-2-2-2-2--4-------4----------------------|

e|--------------------------------------------------------------------------|
b|--------------------------------------------------------------------------|
g|-----3-----------3----------------------3---------------------------------|
D|-------4---4-------4---4------4-----------4---4--2~--4~-------------------|
A|-2-2-----2---2-2-----2------2---2---2-2-----2----2~--4~-------------------|
E|--------------------------4-------4--------------0~--2~-------------------|
 
Second Verse
e|------------------------------------------------------------------------------|
b|------------------------------------------------------------------------------|
g|----4-----4--4-----4-----4--4-----4-----4--4------3-----3--3------------------|
D|--4--4--4--4-----4--4--4--4-----4--4--4--4------4--4--4--4--------------------|
A|------------------------------2-----------------------------------------------|
E|4-------------0-------------------------------2-------------------------------|
 
e|------------------------------------------------------------------------------|
b|------------------------------------------------------------------------------|
g|----4-----4--4-----4-----4--4-----6-----6--6----3~----------------------------|
D|--4--4--4--4-----4--4--4--4-----4--4--4--4------4~----------------------------|
A|------------------------------2-----------------------------------------------|
E|4-------------0-------------------------------2-------------------------------|
 
Bridge (x2)
e|--------------------------------------------------------------------------------------|
b|--------------------------------------------------------------------------------------|
g|--------------------------------------------------------------------------------------|
D|-6-6--6-6-6--6-6-6--6-6-6--6--2-2--2-2-2--2-2-2--2-2-2--2--4-4--4-4-4--4-4-4--4-4-4--4|
A|-6-6--6-6-6--6-6-6--6-6-6--6--2-2--2-2-2--2-2-2--2-2-2--2--2-2--2-2-2--2-2-2--2-2-2--2|
E|-4-4--4-4-4--4-4-4--4-4-4--4--0-0--0-0-0--0-0-0--0-0-0--0-----------------------------|
 
e|--------------------------x-x-x-x-x-|
b|--------------------------x-x-x-x-x-|
g|--------------------------x-x-x-x-x-|
D|-4-4--4-4-4--4-4-4--4-4-4-x-x-x-x-x-|
A|-4-4--4-4-4--4-4-4--4-4-4-x-x-x-x-x-|
E|-2-2--2-2-2--2-2-2--2-2-2-x-x-x-x-x-|
 
On second time, instead of scratching, play:
e|-----------|
b|-----------|
g|-----------|
D|-6--4--2~--|
A|-6--4--2~--|
E|-4--2--0~--|
 
Interlude("Don't Hate me......")
e|-x-x---------------x-x------x-x-----x-x------x-x-----x-x-----x-x-----|
b|-x-x---------------x-x------x-x-----x-x-----x-x------x-x-----x-x-----|
g|-x-x-13~-11--9--8--x-x-13~--x-x-15~-x-x-16~-x-x-13~--x-x-15~-x-x-16~-|
D|-x-x--x---x--x--x--x-x--x---x-x--x--x-x--x--x-x--x---x-x--x--x-x--x--|
A|-x-x-11~--9--7--6--x-x-11~--x-x-13~-x-x-14~-x-x-11~--x-x-13~-x-x-14~-|
E|-x-x---------------x-x------x-x-----x-x-----x-x------x-x-----x-x-----|
 
Ahhhhhhhhhhhhhhhhhhhhhhhhhhhhhhhhhhhhhhhhhhhhhhhhhhh
Repeat 2nd Chorus
 
Outro
e|------------------------------------------------------------------------------------|
b|------------------------------------------------------------------------------------|
g|-----------------------------4p3----6---6------------------------------4p3----6---6-|
D|-6-6-6-6-6x--2-2--4-4-4-4-4-------4---4----6-6-6-6-6x--2-2--4-4-4-4-4-------4---4---|
A|-6-6-6-6-6x--2-2--2-2-2-2-2----------------6-6-6-6-6x--2-2--2-2-2-2-2---------------|
E|-4-4-4-4-4x--0-0---------------------------4-4-4-4-4x--0-0--------------------------|
	      ..                                        ..
 
e|---------------|
b|---------------|
g|---6---6--8~~--|
D|-4---4---------|
A|---------------|
E|---------------|
Comments