Rufio - Dipshit Chords & Tabs

 

Dipshit Chords & Tabs

Rufio Chords & Tabs

Version: 5 Type: Tab 0 ratings
1 star 2 stars 3 stars 4 stars 5 stars
comments

Dipshit Tab

   
----------------------------------------------------------------------------
			     Dipshit - Rufio
----------------------------------------------------------------------------
Tabbed by:over_it
Email:rise_against3@hotmail.com

Tuning:normal E
[ Tab from: http://www.guitartabs.cc/tabs/r/rufio/dipshit_tab_ver_5.html ]
e|--------------------------------------------------------------------------|
B|---------------------2h3p2p0----------------------------------------------|
G|2-2----------2---------------2p0---------------2--------------------------|
D|0-0--0-2-4-0----2-2---------------4-4--0-2-4-0----------------------------|
A|----------------0-0---------------2-2-------------5-5-5-------------------|
E|--------------------------------------------------3-3-3-------------------|

This is my first tab so bear with me... it may not be exactly correct but you guys are 
enough to figure out the flaws and what not; its just the other intro tabs just didn't 
right to me so i put on what i've been playing.

| /  slide up
| \  slide down
| h  hammer-on
| p  pull-off
| ~  vibrato
| +  harmonic
| x  Mute note
===============================================================================
Comments