Rufio - Dipshit Chords & Tabs

 

Dipshit Chords & Tabs

Rufio Chords & Tabs

Version: 4 Type: Tab 0 ratings
1 star 2 stars 3 stars 4 stars 5 stars
comments

Dipshit Tab

Rufio - Dipshit

Intro
e|---------------------------------------------------------|
B|---------------------------------------------------------|
G|-7-7---------------6-7-6--------4-4----------------------|
D|-7-7-0-4-5-7----7-7-------7-5-4-4-4-0-4-5-7----4-5-------|
A|-5-5------------7-7-------------2-2------------4-5-------|
E|----------------5-5----------------------------2-3-------|

e|---------------------------------------------------------|
B|---------------------------------------------------------|
G|--7-7-7-6-6-----------------7-7-7-6-6-7----7-7-7-7-7-7---|
D|--x-x-x-x-x-5-5-0-0-4-4-7-7-x-x-x-x-x-x-x2-x-x-x-x-x-x---|
A|--5-5-5-4-4-----------------5-5-5-4-4-5----5-5-5-5-5-5---|
E|---------------------------------------------------------|

Verse           
e|----------------------------------0-5-0-3-0-2-0-3-0-2----|
B|---------------------------------------------------------|
G|----------4-4-5-5-7-7-4-4-6-6-7-7------------------------|
D|--5-5-7-7-4-4-5-5-7-7------------------------------------|
A|--5-5-7-7-2-2-3-3-5-5------------------------------------|
E|--3-3-5-5------------------------------------------------|

e|---------------------------------------------------------|
B|---------------------------------------------------------|
G|-7-7-7-7-6/7---------------------------------------------|
D|-x-x-x-x-x/x--5----4-5-5-5-5-4-5-5-5---------------------|
A|-5-5-5-5-4/5----5--4-5-5-5-5-4-5-5-5---------------------|
E|-------------------2-3-3-3-3-2-3-3-3---------------------|

Chorus
e|---------------------------------------------------------|
B|---------------------------------------------------------|
G|---------------4-4-------4-4-----7-7---4-4-------4-4-----|
D|-5--5-4-0--7---4-4-7-7-5-4-4-7-7-7-7-5-4-4-7-7-5-4-4-7-7-|
A|-5---------7---2-2-7-7-5-2-2-7-7-5-5-5-2-2-7-7-5-2-2-7-7-|
E|-3---------5-------5-5-3-----5-5-----3-----5-5-3-----5-5-|
[ Tab from: http://www.guitartabs.cc/tabs/r/rufio/dipshit_tab_ver_4.html ]
e|-------------------------------|
B|-------------------------------|
G|--11-12-10-14------------------|
D|--x--x--x--x-------------------|
A|--9--10-9--12------------------|
E|-------------------------------|


Intro Again

After the Second intro
e|-------------------------------|
B|-------------------------------|
G|--4-4------7-7-----------------|
D|--4-4--7-7-7-7--5-5------------|
A|--2-2--7-7-5-5--5-5------------|
E|-------5-5------3-3------------|

Interlude
e|-------------------------------|
B|-------------------------------|
G|-------------------------------|
D|-----7--7---7-----5-4-2-4-0----|
A|---5---5--5---5----------------|
E|--7---3----7----7--------------|

e|-------------------------------|
B|-------------------------------|
G|11--12--11-14------------------|
D|-x---x--x--x-------------------|
A|-9--10--9--12------------------|
E|-------------------------------|

e|-----10-------10-------10-------10-------10-------10--------|
B|---10--10---10--10---10--10---10--10---10--10---10--10------|
G|-7--------0--------------------------7--------0-------------|
D|-------------------9--------7---------------------------9-7-|
A|--------------------------------------------------------9-7-|
E|--------------------------------------------------------7-5-|

Outro
e|------------------------|
B|------------------------|
G|-11-14------11-9--------|
D|-x--x---x3--x--x--x2----|
A|-9--12------9--7--------|
E|------------------------|

e|------------------------|
B|------------------------|
G|11-12-14-11-12-9--------|
D|-x--x-x--x--x--x--------|
A|-9-10-12-9--10-7--------|
E|------------------------|

e|------------------------|
B|------------------------|
G|11-12-11-14-------------|
D|-x-x--x--x--------------|
A|-9-10-9--12-------------|
E|------------------------|

End on

e|-------|
B|-------|
G|-14----|
D|-x-----|
A|-12----|
E|-------|
Comments