Rufio - Dipshit Chords & Tabs

 

Dipshit Chords & Tabs

Rufio Chords & Tabs

Version: 1 Type: Tab 0 ratings
1 star 2 stars 3 stars 4 stars 5 stars
comments

Dipshit Tab

   
Intro:
e|---------------------------------------------------------------------------|
B|---------------------------------------------------------------------------|
G|-77--------------6h7p6-----------------------------------------------------|
D|-77-0h4h5p0-7--77-------754--99-0h4h5p0-7--4/5-555---(x4)------------------|
A|-55------------77------------99------------4/5-555-------------------------|
E|---------------55------------77------------2/3-333-------------------------|

Bridge:
e|---------------------------------------------------------------------------|
B|---------------------------------------------------------------------------|
G|--77777666-----------------777776667777-7----------------------------------|
D|--xxxxxxxx-5-5-0-0-4-4-7-7-xxxxxxxxxxxx-x----------------------------------|
A|--55555444-----------------555554445555-5----------------------------------|
E|---------------------------------------------------------------------------|
             . . . . . . . .              .
e|---------------------------------------------------------------------------|
B|---------------------------------------------------------------------------|
G|--77777666-----------------7777777777777777--------------------------------|
D|--xxxxxxxx-5-5-0-0-4-4-7-7-xxxxxxxxxxxxxxxx--------------------------------|
A|--55555444-----------------5555555555555555--------------------------------|
E|---------------------------------------------------------------------------|
             . . . . . . . .

Verse:              He said you want my heart.........
e|----------------------------------0-0-5-0-0-3-0-0-2-0-0-3-0-0-2------------|
B|---------------------------------------------------------------------------|
G|----------------------4-4-6-6-7-7------------------------------------------|
D|----------4-4-5-5-7-7------------------------------------------------------|
A|--5-5-7-7------------------------------------------------------------------|
E|---------------------------------------------------------------------------|
    . . . . . . . . . . . . . . . . . .   . .   . .   . .   . .

e|---------------------------------------------------------------------------|
B|---------------------------------------------------------------------------|
G|-77777777-6/7--------------------------------------------------------------|
D|-xxxxxxxx-x/x--5*----4/5-555-4/5-555---------------------------------------|
A|-55555555-4/5----5*--4/5-555-4/5-555---------------------------------------|
E|---------------------2/3-333-2/3-333---------------------------------------|
                           . .     . .

 Pre-Chorus: Use your mind.......
e|---------------------------------------------------------------------------|
B|---------------------------------------------------------------------------|
G|---------------------------------------------------------------------------|
D|-5~~5-4-0--7~~~~~~~~-------------------------------------------------------|
A|-5~~-------7~~~~~~~~-------------------------------------------------------|
E|-3~~-------5~~~~~~~~-------------------------------------------------------|

e|---------------------------------------------------------------------------|
B|---------------------------------------------------------------------------|
G|--------------------------7777---------------------------------------------|
D|-9999-7777-5----9999-7777-7777-5----9999-7777-5----99999999-7777-7~~~------|
A|-9999-7777-5----9999-7777-5555-5----9999-7777-5----99999999-7777-7~~~------|
E|-7777-5555-3----7777-5555------3----7777-5555-3----77777777-5555-5~~~------|
                                 .                            ....
[ Tab from: http://www.guitartabs.cc/tabs/r/rufio/dipshit_tab.html ]
Chorus:
e|---------------------------------------------------------------------------|
B|---------------------------------------------------------------------------|
G|-11111111------12121212------10101010------14141414------------------------|
D|--x-x-x-x-------x-x-x-x-------x-x-x-x-------x-x-x-x----(x2)----------------|
A|--9-9-9-9------10101010-------9-9-9-9------12121212------------------------|
E|---------------------------------------------------------------------------|

e|---------------------------------------------------------------------------|
B|---------------------------------------------------------------------------|
G|-1111-xxxx-----1212-xxxx-----1010-xxxx-----1414-xxxx-----------------------|
D|--x-x-xxxx------x-x-xxxx------x-x-xxxx------x-x-xxxx---(x2)----------------|
A|--9-9-xxxx-----1010-xxxx------9-9-xxxx-----1212-xxxx-----------------------|
E|---------------------------------------------------------------------------|

Intro (x2)

Bridge (a little change)
e|---------------------------------------------------------------------------|
B|---------------------------------------------------------------------------|
G|------------7777-----------------------------------------------------------|
D|--9999-7777-7777-5-5-------------------------------------------------------|
A|--9999-7777-5555-5-5-------------------------------------------------------|
E|--7777-5555------3-3-------------------------------------------------------|
                   . .
Verse (x2)
pre-chorus
Chorus

Interlude:
e|---------------------------------------------------------------------------|
B|---------------------------------------------------------------------------|
G|---------------------------------------------------------------------------|
D|--------7~~~~~~~~~~~~~7~~~~~~~~~~~~~7--7-5-4-2-4-0-------------------------|
A|-----5~~~~~~~~~~~~~5~~~~~~~~~~~~~5----5------------------------------------|
E|--7~~~~~~~~~~~~~3~~~~~~~~~~~~~7------7-------------------------------------|

e|---------------------------------------------------------------------------|
B|---------------------------------------------------------------------------|
G|1111111111111111-1212121212121212-1111111111111111-1414141414141414--------|
D|-x-x-x-x-x-x-x-x--x-x-x-x-x-x-x-x--x-x-x-x-x-x-x-x--x-x-x-x-x-x-x-x--------|
A|-9-9-9-9-9-9-9-9-1010101010101010--9-9-9-9-9-9-9-9-1212121212121212--------|
E|---------------------------------------------------------------------------|

e|-----10-------10-------10-------10-------10-------10-----------------------|
B|---10--10---10--10---10--10---10--10---10--10---10--10---------------------|
G|-7--------0--------------------------7--------0----------------------------|
D|-------------------9--------7---------------------------9-9-xxxx--7-7-xxxx-|
A|--------------------------------------------------------9-9-xxxx--7-7-xxxx-|
E|--------------------------------------------------------7-7-xxxx--5-5-xxxx-|

Outro (Chorus)
e|---------------------------------------------------------------------------|
B|---------------------------------------------------------------------------|
G|--xxxx-11/14141414--xxxx-11/14141414--xxxx-11/14141414--xxxx-11/9999-------|
D|--xxxx--x/-x-x-x-x--xxxx--x/-x-x-x-x--xxxx--x/-x-x-x-x--xxxx--x/xxxx--(x2)-|
A|--xxxx--9/12121212--xxxx--9/12121212--xxxx--9/12121212--xxxx--9/7777-------|
E|---------------------------------------------------------------------------|

e|---------------------------------------------------------------------------|
B|---------------------------------------------------------------------------|
G|1111111111111111-12121212-141414141111111111111111-12121212-9-9-9-9--------|
D|-x-x-x-x-x-x-x-x--x-x-x-x--x-x-x-x-x-x-x-x-x-x-x-x--x-x-x-x-x-x-x-x--------|
A|-9-9-9-9-9-9-9-9-10101010-12121212-9-9-9-9-9-9-9-9-10101010-7-7-7-7--------|
E|---------------------------------------------------------------------------|

e|---------------------------------------------------------------------------|
B|---------------------------------------------------------------------------|
G|1111111111111111-12121212121212121111111111111111-1414141414141414----14~~~|
D|-x-x-x-x-x-x-x-x--x-x-x-x-x-x-x-x-x-x-x-x-x-x-x-x--x-x-x-x-x-x-x-x-----x~~~|
A|-9-9-9-9-9-9-9-9-1010101010101010-9-9-9-9-9-9-9-9-1212121212121212----12~~~|
E|---------------------------------------------------------------------------|

have any questions or anything E-mail me at Cruzinespy7@aol.com

Comments