Rufio - Dipshit Chords & Tabs

 

Dipshit Chords & Tabs

Rufio Chords & Tabs

Version: 1 Type: Bass Tab 0 ratings
1 star 2 stars 3 stars 4 stars 5 stars
comments

Dipshit Bass Tab

Artist:Rufio
Song:Dipshit
Album:Perhaps, I Suppose. . .

Submitted by:Albert
Mail:Burn_out182@hotmail.com
Intro

G-----------------------------
D-----------------------------  x2
A--55-------------------------
E--------55----77---23-3-33---

Pre-verse

G---------------------------------------------------------------------------
D---------------------------------------------------------------------------
A--55555555---------------------------55555555-77777777---------------------
E-----------55555555-77777777-23-3-33-------------------55555555-23-3-33----

G---------------------------------------------------------------------------
D---------------------------------------------------------------------------
A---------------------------5555--------------------------------------------
E--7777-5555-3----7777-5555------3--7777-5555-3----77777777-55555555--------

Verse

G---------------------------------------------------------------------------
D--------------------------------------------------------------------------- x2
A------------------------------------55555555-4-5-4-2-----------------------
E--3333333333333333-5555555555555555------------------23-3-33-23-3-33-------

G---------------------------------------------------------------------------
D---------------------------------------------------------------------------
A---------------------------------------------------------------------------
E--3333333333333333-5555555555555555----------------------------------------

Pre-chorus

G---------------------------------------------------------------------------
D---------------------------------------------------------------------------
A---------------------------5555--------------------------------------------
E--7777-5555-3----7777-5555------3333-7777-5555-3-77777777-55555555---------

Chorus

G-------------------------------------------------------------------------------
D-------------------------------------------------------------------------------
A--5555---------------2222-----0000-----5555--------------2222-----0022424------
E-----------3333---------------------------------3333---------------------------

G---------------------------------------------------------
D---------------------------------------------------------
A--55-------22---00---55--------22------------------------
E-------33-----------------33--------5-5-5----------------

Intro and Pre-verse kinda thing again

G-----------------------------
D-----------------------------
A--55-------------------------
E--------55----77---23-3-33---

G-------------------------------------
D-------------------------------------
A--55555555---------------------------
E-----------55555555-77777777-23-3-33-
[ Tab from: http://www.guitartabs.cc/tabs/r/rufio/dipshit_btab.html ]
G--------------------------
D--------------------------
A-------------5555---------
E---7777-5555------3-3-----

Verse

G---------------------------------------------------------------------------
D--------------------------------------------------------------------------- x2
A------------------------------------55555555-4-5-4-2-----------------------
E--3333333333333333-5555555555555555------------------23-3-33-23-3-33-------

G---------------------------------------------------------------------------
D---------------------------------------------------------------------------
A---------------------------------------------------------------------------
E--3333333333333333-5555555555555555----------------------------------------

Pre-chorus

G---------------------------------------------------------------------------
D---------------------------------------------------------------------------
A---------------------------5555--------------------------------------------
E--7777-5555-3----7777-5555------3333-7777-5555-3----77777777-55555555------

Chorus

G-------------------------------------------------------------------------------
D-------------------------------------------------------------------------------
A--5555---------------2222-----0000-----5555--------------2222-----0022424------
E-----------3333---------------------------------3333---------------------------

G---------------------------------------------------------
D---------------------------------------------------------
A--5555--------2222---0000---5555--------2222-------------
E--------3333----------------------3333--------5-5-5------

Bridge

G------------------------------------------------------------
D------------------------------------------------------------
A---------------------------------5~-------------------------
E---7~--------3~--------7~--------------5~-------------------

G-------------------------------------------------------------------------
D-------------------------------------------------------------------------
A--222222222222222------------------2222222222222222-5555555555555555-----
E------------------3333333333333333---------------------------------------

G-----------------------------------------------------------------
D---------5~----------------------5~------------------------------
A---5~----------2~----0~----5~------------------------------------
E---------------------------------------7777----5555--------------

Outro

G-----------------------------------------------------------------
D-------------------------------------------------------42--------
A---55555---------22222--00000--55555---------22222--024--42------
E----------33333-----------------------33333----------------------

G------------------------------------------
D------------------------------------------ x2
A---55555555--------2222222200000000-------  end with A--5--
E-----------33333333-----------------------
Comments